ISO-10303-21;
HEADER;
FILE_DESCRIPTION (( 'STEP AP203' ),
    '1' );
FILE_NAME ('REV-21-6534_RevC.STEP',
    '2025-11-20T16:18:32',
    ( '' ),
    ( '' ),
    'SwSTEP 2.0',
    'SolidWorks 2022',
    '' );
FILE_SCHEMA (( 'CONFIG_CONTROL_DESIGN' ));
ENDSEC;

DATA;
#1 = ORIENTED_EDGE ( 'NONE', *, *, #155, .T. ) ;
#2 = LINE ( 'NONE', #307, #177 ) ;
#3 = FACE_OUTER_BOUND ( 'NONE', #149, .T. ) ;
#4 = DIRECTION ( 'NONE',  ( 0.9997756428924599037, -0.02118168734941639625, 0.000000000000000000 ) ) ;
#5 = EDGE_CURVE ( 'NONE', #348, #332, #186, .T. ) ;
#6 = VECTOR ( 'NONE', #334, 1000.000000000000000 ) ;
#7 = DIRECTION ( 'NONE',  ( 0.000000000000000000, 0.000000000000000000, 1.000000000000000000 ) ) ;
#8 = PLANE ( 'NONE',  #395 ) ;
#9 = CARTESIAN_POINT ( 'NONE',  ( -3.968750000000000000, -93.66250000000000853, 304.8000000000000114 ) ) ;
#10 = CARTESIAN_POINT ( 'NONE',  ( -1.984375000000000000, 0.000000000000000000, 304.8000000000000114 ) ) ;
#11 = LINE ( 'NONE', #129, #212 ) ;
#12 = EDGE_CURVE ( 'NONE', #89, #92, #62, .T. ) ;
#13 = CC_DESIGN_DATE_AND_TIME_ASSIGNMENT ( #356, #88, ( #77 ) ) ;
#14 = APPROVAL_DATE_TIME ( #288, #293 ) ;
#15 = EDGE_LOOP ( 'NONE', ( #357, #320, #386, #337 ) ) ;
#16 = DIRECTION ( 'NONE',  ( 0.000000000000000000, 0.000000000000000000, -1.000000000000000000 ) ) ;
#17 = APPROVAL_PERSON_ORGANIZATION ( #55, #293, #21 ) ;
#18 = EDGE_LOOP ( 'NONE', ( #243, #109, #101, #300 ) ) ;
#19 = APPROVAL_DATE_TIME ( #347, #364 ) ;
#20 = ORIENTED_EDGE ( 'NONE', *, *, #326, .T. ) ;
#21 = APPROVAL_ROLE ( '' ) ;
#22 = VERTEX_POINT ( 'NONE', #213 ) ;
#23 = EDGE_CURVE ( 'NONE', #183, #137, #246, .T. ) ;
#24 = DIRECTION ( 'NONE',  ( 1.000000000000000000, 0.000000000000000000, 0.000000000000000000 ) ) ;
#25 = DATE_AND_TIME ( #108, #94 ) ;
#26 = APPROVAL_PERSON_ORGANIZATION ( #144, #364, #142 ) ;
#27 = ORIENTED_EDGE ( 'NONE', *, *, #70, .T. ) ;
#28 = ADVANCED_FACE ( 'NONE', ( #394 ), #238, .F. ) ;
#29 = VERTEX_POINT ( 'NONE', #272 ) ;
#30 = CARTESIAN_POINT ( 'NONE',  ( -1.984375000000000000, 0.000000000000000000, 762.0000000000000000 ) ) ;
#31 = CARTESIAN_POINT ( 'NONE',  ( -3.968750000000000000, 7.937500000000000000, 762.0000000000000000 ) ) ;
#32 = VECTOR ( 'NONE', #349, 1000.000000000000000 ) ;
#33 = ORIENTED_EDGE ( 'NONE', *, *, #352, .F. ) ;
#34 =( LENGTH_UNIT ( ) NAMED_UNIT ( * ) SI_UNIT ( .MILLI., .METRE. ) );
#35 = APPROVAL ( #170, 'UNSPECIFIED' ) ;
#36 = CARTESIAN_POINT ( 'NONE',  ( -3.968750000000000000, 6.938893903907228378E-15, 762.0000000000000000 ) ) ;
#37 = CARTESIAN_POINT ( 'NONE',  ( 3.968750000000000000, -93.66250000000000853, -304.8000000000000114 ) ) ;
#38 = CC_DESIGN_PERSON_AND_ORGANIZATION_ASSIGNMENT ( #85, #45, ( #304 ) ) ;
#39 = LINE ( 'NONE', #42, #32 ) ;
#40 = DIRECTION ( 'NONE',  ( 1.000000000000000000, 0.000000000000000000, 0.000000000000000000 ) ) ;
#41 = AXIS2_PLACEMENT_3D ( 'NONE', #146, #61, #172 ) ;
#42 = CARTESIAN_POINT ( 'NONE',  ( -3.968750000000000000, -93.66250000000000853, 304.8000000000000114 ) ) ;
#43 = CARTESIAN_POINT ( 'NONE',  ( -3.968750000000000000, -2.775557561562891351E-14, 304.8000000000000114 ) ) ;
#44 = FACE_OUTER_BOUND ( 'NONE', #201, .T. ) ;
#45 = PERSON_AND_ORGANIZATION_ROLE ( 'creator' ) ;
#46 = VERTEX_POINT ( 'NONE', #365 ) ;
#47 = DIRECTION ( 'NONE',  ( 0.000000000000000000, 1.000000000000000000, 0.000000000000000000 ) ) ;
#48 =( NAMED_UNIT ( * ) PLANE_ANGLE_UNIT ( ) SI_UNIT ( $, .RADIAN. ) );
#49 = ORIENTED_EDGE ( 'NONE', *, *, #138, .T. ) ;
#50 = FACE_OUTER_BOUND ( 'NONE', #355, .T. ) ;
#51 = CC_DESIGN_APPROVAL ( #35, ( #312 ) ) ;
#52 = PRODUCT ( 'REV-21-6534_RevC', 'REV-21-6534_RevC', '', ( #315 ) ) ;
#53 = CARTESIAN_POINT ( 'NONE',  ( -3.968750000000000000, -93.66250000000000853, -304.8000000000000114 ) ) ;
#54 = ADVANCED_FACE ( 'NONE', ( #124 ), #302, .F. ) ;
#55 = PERSON_AND_ORGANIZATION ( #148, #210 ) ;
#56 = EDGE_CURVE ( 'NONE', #348, #183, #71, .T. ) ;
#57 = PERSON_AND_ORGANIZATION ( #148, #210 ) ;
#58 = VERTEX_POINT ( 'NONE', #60 ) ;
#59 = CLOSED_SHELL ( 'NONE', ( #207, #236, #54, #100, #398, #278, #28, #188, #240, #185, #79, #256 ) ) ;
#60 = CARTESIAN_POINT ( 'NONE',  ( 3.968750000000000000, 7.937499999999972466, -304.8000000000000114 ) ) ;
#61 = DIRECTION ( 'NONE',  ( 0.000000000000000000, -1.000000000000000000, 0.000000000000000000 ) ) ;
#62 = LINE ( 'NONE', #363, #193 ) ;
#63 = ORIENTED_EDGE ( 'NONE', *, *, #326, .F. ) ;
#64 = VECTOR ( 'NONE', #223, 1000.000000000000000 ) ;
#65 = CARTESIAN_POINT ( 'NONE',  ( -3.968749999999777955, 0.000000000000000000, -304.8000000000000114 ) ) ;
#66 = EDGE_CURVE ( 'NONE', #58, #22, #120, .T. ) ;
#67 = LINE ( 'NONE', #244, #182 ) ;
#68 = DIRECTION ( 'NONE',  ( 0.000000000000000000, 0.000000000000000000, 1.000000000000000000 ) ) ;
#69 = VECTOR ( 'NONE', #209, 1000.000000000000000 ) ;
#70 = EDGE_CURVE ( 'NONE', #46, #348, #242, .T. ) ;
#71 = LINE ( 'NONE', #327, #369 ) ;
#72 = FACE_OUTER_BOUND ( 'NONE', #382, .T. ) ;
#73 = CARTESIAN_POINT ( 'NONE',  ( 3.968750000000000000, 7.937499999999972466, 304.8000000000000114 ) ) ;
#74 = LINE ( 'NONE', #224, #98 ) ;
#75 = DIRECTION ( 'NONE',  ( -1.000000000000000000, 0.000000000000000000, 0.000000000000000000 ) ) ;
#76 = DIRECTION ( 'NONE',  ( 0.000000000000000000, 0.000000000000000000, 1.000000000000000000 ) ) ;
#77 = SECURITY_CLASSIFICATION ( '', '', #231 ) ;
#78 = LINE ( 'NONE', #157, #271 ) ;
#79 = ADVANCED_FACE ( 'NONE', ( #191 ), #371, .F. ) ;
#80 = ORIENTED_EDGE ( 'NONE', *, *, #264, .T. ) ;
#81 = DIRECTION ( 'NONE',  ( -0.000000000000000000, -0.000000000000000000, -1.000000000000000000 ) ) ;
#82 = APPLICATION_PROTOCOL_DEFINITION ( 'international standard', 'config_control_design', 1994, #103 ) ;
#83 = ORIENTED_EDGE ( 'NONE', *, *, #343, .T. ) ;
#84 = LINE ( 'NONE', #195, #381 ) ;
#85 = PERSON_AND_ORGANIZATION ( #148, #210 ) ;
#86 = ORIENTED_EDGE ( 'NONE', *, *, #303, .F. ) ;
#87 = EDGE_CURVE ( 'NONE', #360, #359, #106, .T. ) ;
#88 = DATE_TIME_ROLE ( 'classification_date' ) ;
#89 = VERTEX_POINT ( 'NONE', #250 ) ;
#90 = DATE_AND_TIME ( #321, #192 ) ;
#91 = ORIENTED_EDGE ( 'NONE', *, *, #56, .F. ) ;
#92 = VERTEX_POINT ( 'NONE', #227 ) ;
#93 = EDGE_CURVE ( 'NONE', #360, #22, #316, .T. ) ;
#94 = LOCAL_TIME ( 10, 18, 32.00000000000000000, #323 ) ;
#95 = ORIENTED_EDGE ( 'NONE', *, *, #198, .F. ) ;
#96 = DIRECTION ( 'NONE',  ( -0.000000000000000000, -0.000000000000000000, -1.000000000000000000 ) ) ;
#97 = ORIENTED_EDGE ( 'NONE', *, *, #12, .F. ) ;
#98 = VECTOR ( 'NONE', #158, 1000.000000000000000 ) ;
#99 = CARTESIAN_POINT ( 'NONE',  ( -3.968750000000000000, -93.66249999999999432, 762.0000000000000000 ) ) ;
#100 = ADVANCED_FACE ( 'NONE', ( #3 ), #225, .F. ) ;
#101 = ORIENTED_EDGE ( 'NONE', *, *, #303, .T. ) ;
#102 = DIRECTION ( 'NONE',  ( 0.000000000000000000, 0.000000000000000000, 1.000000000000000000 ) ) ;
#103 = APPLICATION_CONTEXT ( 'configuration controlled 3d designs of mechanical parts and assemblies' ) ;
#104 = CC_DESIGN_APPROVAL ( #293, ( #77 ) ) ;
#105 = CARTESIAN_POINT ( 'NONE',  ( 1.984375000000000000, -6.938893903907228378E-15, -304.8000000000004093 ) ) ;
#106 = LINE ( 'NONE', #162, #259 ) ;
#107 = FACE_OUTER_BOUND ( 'NONE', #330, .T. ) ;
#108 = CALENDAR_DATE ( 2025, 20, 11 ) ;
#109 = ORIENTED_EDGE ( 'NONE', *, *, #66, .T. ) ;
#110 = DIRECTION ( 'NONE',  ( -1.000000000000000000, 0.000000000000000000, 0.000000000000000000 ) ) ;
#111 = ORIENTED_EDGE ( 'NONE', *, *, #264, .F. ) ;
#112 = DIRECTION ( 'NONE',  ( -1.000000000000000000, 1.993396579147520059E-15, 0.000000000000000000 ) ) ;
#113 = PERSON_AND_ORGANIZATION_ROLE ( 'design_supplier' ) ;
#114 = APPROVAL_STATUS ( 'not_yet_approved' ) ;
#115 = ORIENTED_EDGE ( 'NONE', *, *, #366, .T. ) ;
#116 = ORIENTED_EDGE ( 'NONE', *, *, #273, .F. ) ;
#117 = ORIENTED_EDGE ( 'NONE', *, *, #160, .T. ) ;
#118 = DIRECTION ( 'NONE',  ( 1.000000000000000000, 0.000000000000000000, 0.000000000000000000 ) ) ;
#119 = AXIS2_PLACEMENT_3D ( 'NONE', #286, #102, #40 ) ;
#120 = LINE ( 'NONE', #178, #290 ) ;
#121 = EDGE_LOOP ( 'NONE', ( #254, #239, #91, #268 ) ) ;
#122 = VECTOR ( 'NONE', #81, 1000.000000000000000 ) ;
#123 = DIRECTION ( 'NONE',  ( -0.02118168734941669809, 0.9997756428924599037, 0.000000000000000000 ) ) ;
#124 = FACE_OUTER_BOUND ( 'NONE', #121, .T. ) ;
#125 = DIRECTION ( 'NONE',  ( 1.993396579147520059E-15, 1.000000000000000000, 0.000000000000000000 ) ) ;
#126 = DIRECTION ( 'NONE',  ( -1.000000000000000000, 1.993396579147520059E-15, 0.000000000000000000 ) ) ;
#127 = CARTESIAN_POINT ( 'NONE',  ( -3.968750000000000000, 7.937499999999972466, 304.8000000000000114 ) ) ;
#128 = DIRECTION ( 'NONE',  ( 0.000000000000000000, 1.000000000000000000, 0.000000000000000000 ) ) ;
#129 = CARTESIAN_POINT ( 'NONE',  ( -3.968750000000000000, 7.937500000000000000, 304.8000000000000114 ) ) ;
#130 = CARTESIAN_POINT ( 'NONE',  ( 3.968750000000017319, -93.66250000000002274, 762.0000000000000000 ) ) ;
#131 = CARTESIAN_POINT ( 'NONE',  ( 3.968750000000000000, 7.937500000000000000, 762.0000000000000000 ) ) ;
#132 = SHAPE_DEFINITION_REPRESENTATION ( #219, #202 ) ;
#133 = ORIENTED_EDGE ( 'NONE', *, *, #222, .F. ) ;
#134 = LOCAL_TIME ( 10, 18, 32.00000000000000000, #385 ) ;
#135 = CARTESIAN_POINT ( 'NONE',  ( -1.984375000000000000, 0.000000000000000000, -304.7999999999999545 ) ) ;
#136 = CARTESIAN_POINT ( 'NONE',  ( 0.000000000000000000, 0.000000000000000000, 0.000000000000000000 ) ) ;
#137 = VERTEX_POINT ( 'NONE', #384 ) ;
#138 = EDGE_CURVE ( 'NONE', #137, #89, #84, .T. ) ;
#139 = PERSON_AND_ORGANIZATION ( #148, #210 ) ;
#140 = MANIFOLD_SOLID_BREP ( '74405T195_Tight-Seal Strip Brush with Nylon Bristles', #59 ) ;
#141 = ORIENTED_EDGE ( 'NONE', *, *, #180, .F. ) ;
#142 = APPROVAL_ROLE ( '' ) ;
#143 =( GEOMETRIC_REPRESENTATION_CONTEXT ( 3 ) GLOBAL_UNCERTAINTY_ASSIGNED_CONTEXT ( ( #245 ) ) GLOBAL_UNIT_ASSIGNED_CONTEXT ( ( #34, #48, #318 ) ) REPRESENTATION_CONTEXT ( 'NONE', 'WORKASPACE' ) );
#144 = PERSON_AND_ORGANIZATION ( #148, #210 ) ;
#145 = ORIENTED_EDGE ( 'NONE', *, *, #155, .F. ) ;
#146 = CARTESIAN_POINT ( 'NONE',  ( -3.968750000000000000, 7.937500000000000000, 762.0000000000000000 ) ) ;
#147 = ORIENTED_EDGE ( 'NONE', *, *, #152, .F. ) ;
#148 = PERSON ( 'UNSPECIFIED', 'UNSPECIFIED', 'UNSPECIFIED', ('UNSPECIFIED'), ('UNSPECIFIED'), ('UNSPECIFIED') ) ;
#149 = EDGE_LOOP ( 'NONE', ( #166, #1, #262, #392 ) ) ;
#150 = CC_DESIGN_DATE_AND_TIME_ASSIGNMENT ( #25, #175, ( #312 ) ) ;
#151 = DIRECTION ( 'NONE',  ( 1.993396579147520059E-15, 1.000000000000000000, 0.000000000000000000 ) ) ;
#152 = EDGE_CURVE ( 'NONE', #171, #232, #11, .T. ) ;
#153 = CC_DESIGN_PERSON_AND_ORGANIZATION_ASSIGNMENT ( #139, #204, ( #77 ) ) ;
#154 = CARTESIAN_POINT ( 'NONE',  ( 3.968750000000017319, -93.66250000000002274, 304.7999999999997840 ) ) ;
#155 = EDGE_CURVE ( 'NONE', #183, #277, #167, .T. ) ;
#156 = ORIENTED_EDGE ( 'NONE', *, *, #66, .F. ) ;
#157 = CARTESIAN_POINT ( 'NONE',  ( -1.984375000000000000, 0.000000000000000000, 304.8000000000000114 ) ) ;
#158 = DIRECTION ( 'NONE',  ( -1.000000000000000000, 0.000000000000000000, 0.000000000000000000 ) ) ;
#159 = DIRECTION ( 'NONE',  ( -1.000000000000000000, 1.993396579147520059E-15, 0.000000000000000000 ) ) ;
#160 = EDGE_CURVE ( 'NONE', #360, #137, #203, .T. ) ;
#161 = LINE ( 'NONE', #31, #370 ) ;
#162 = CARTESIAN_POINT ( 'NONE',  ( -3.968750000000000000, 6.938893903907228378E-15, 762.0000000000000000 ) ) ;
#163 = CARTESIAN_POINT ( 'NONE',  ( 3.968750000000000000, -4.163336342344337027E-14, -304.8000000000000114 ) ) ;
#164 = DIRECTION ( 'NONE',  ( -1.000000000000000000, 0.000000000000000000, 0.000000000000000000 ) ) ;
#165 = COORDINATED_UNIVERSAL_TIME_OFFSET ( 6, 0, .BEHIND. ) ;
#166 = ORIENTED_EDGE ( 'NONE', *, *, #56, .T. ) ;
#167 = LINE ( 'NONE', #135, #297 ) ;
#168 = ORIENTED_EDGE ( 'NONE', *, *, #23, .F. ) ;
#169 = VECTOR ( 'NONE', #308, 1000.000000000000000 ) ;
#170 = APPROVAL_STATUS ( 'not_yet_approved' ) ;
#171 = VERTEX_POINT ( 'NONE', #127 ) ;
#172 = DIRECTION ( 'NONE',  ( 0.000000000000000000, 0.000000000000000000, -1.000000000000000000 ) ) ;
#173 = APPROVAL_STATUS ( 'not_yet_approved' ) ;
#174 = ORIENTED_EDGE ( 'NONE', *, *, #180, .T. ) ;
#175 = DATE_TIME_ROLE ( 'creation_date' ) ;
#176 = ORIENTED_EDGE ( 'NONE', *, *, #87, .F. ) ;
#177 = VECTOR ( 'NONE', #76, 1000.000000000000000 ) ;
#178 = CARTESIAN_POINT ( 'NONE',  ( -3.968750000000000000, 7.937500000000000000, -304.7999999999999545 ) ) ;
#179 = DIRECTION ( 'NONE',  ( -1.000000000000000000, 2.368679630059802098E-15, 0.000000000000000000 ) ) ;
#180 = EDGE_CURVE ( 'NONE', #359, #171, #39, .T. ) ;
#181 = ORIENTED_EDGE ( 'NONE', *, *, #138, .F. ) ;
#182 = VECTOR ( 'NONE', #123, 1000.000000000000000 ) ;
#183 = VERTEX_POINT ( 'NONE', #105 ) ;
#184 = PLANE ( 'NONE',  #119 ) ;
#185 = ADVANCED_FACE ( 'NONE', ( #251 ), #376, .F. ) ;
#186 = LINE ( 'NONE', #391, #69 ) ;
#187 = LINE ( 'NONE', #130, #311 ) ;
#188 = ADVANCED_FACE ( 'NONE', ( #107 ), #344, .F. ) ;
#189 = FACE_OUTER_BOUND ( 'NONE', #378, .T. ) ;
#190 = CARTESIAN_POINT ( 'NONE',  ( -1.984375000000000000, 0.000000000000000000, 762.0000000000000000 ) ) ;
#191 = FACE_OUTER_BOUND ( 'NONE', #324, .T. ) ;
#192 = LOCAL_TIME ( 10, 18, 32.00000000000000000, #228 ) ;
#193 = VECTOR ( 'NONE', #118, 1000.000000000000000 ) ;
#194 = AXIS2_PLACEMENT_3D ( 'NONE', #9, #16, #75 ) ;
#195 = CARTESIAN_POINT ( 'NONE',  ( -1.984375000000000000, 0.000000000000000000, -304.7999999999999545 ) ) ;
#196 = APPROVAL_DATE_TIME ( #90, #35 ) ;
#197 = ORIENTED_EDGE ( 'NONE', *, *, #373, .F. ) ;
#198 = EDGE_CURVE ( 'NONE', #29, #348, #78, .T. ) ;
#199 = LINE ( 'NONE', #279, #64 ) ;
#200 = PERSON_AND_ORGANIZATION ( #148, #210 ) ;
#201 = EDGE_LOOP ( 'NONE', ( #306, #133, #116, #215 ) ) ;
#202 = ADVANCED_BREP_SHAPE_REPRESENTATION ( 'REV-21-6534_RevC', ( #140, #380 ), #143 ) ;
#203 = LINE ( 'NONE', #374, #235 ) ;
#204 = PERSON_AND_ORGANIZATION_ROLE ( 'classification_officer' ) ;
#205 = VERTEX_POINT ( 'NONE', #314 ) ;
#206 = ORIENTED_EDGE ( 'NONE', *, *, #160, .F. ) ;
#207 = ADVANCED_FACE ( 'NONE', ( #44 ), #257, .F. ) ;
#208 = PERSON_AND_ORGANIZATION_ROLE ( 'creator' ) ;
#209 = DIRECTION ( 'NONE',  ( 0.02118168734941669809, -0.9997756428924599037, 0.000000000000000000 ) ) ;
#210 = ORGANIZATION ( 'UNSPECIFIED', 'UNSPECIFIED', '' ) ;
#211 = DIRECTION ( 'NONE',  ( 0.000000000000000000, 0.000000000000000000, 1.000000000000000000 ) ) ;
#212 = VECTOR ( 'NONE', #247, 1000.000000000000000 ) ;
#213 = CARTESIAN_POINT ( 'NONE',  ( -3.968750000000000000, 7.937499999999972466, -304.8000000000000114 ) ) ;
#214 = ORIENTED_EDGE ( 'NONE', *, *, #383, .F. ) ;
#215 = ORIENTED_EDGE ( 'NONE', *, *, #5, .F. ) ;
#216 = EDGE_CURVE ( 'NONE', #29, #277, #230, .T. ) ;
#217 = LINE ( 'NONE', #10, #301 ) ;
#218 = DIRECTION ( 'NONE',  ( 0.02118168734941639625, 0.9997756428924599037, 0.000000000000000000 ) ) ;
#219 = PRODUCT_DEFINITION_SHAPE ( 'NONE', 'NONE',  #312 ) ;
#220 = DIRECTION ( 'NONE',  ( -0.9997756428924599037, -0.02118168734941669809, 0.000000000000000000 ) ) ;
#221 = CC_DESIGN_PERSON_AND_ORGANIZATION_ASSIGNMENT ( #57, #208, ( #312 ) ) ;
#222 = EDGE_CURVE ( 'NONE', #205, #46, #199, .T. ) ;
#223 = DIRECTION ( 'NONE',  ( 0.02118168734941639625, 0.9997756428924599037, 0.000000000000000000 ) ) ;
#224 = CARTESIAN_POINT ( 'NONE',  ( -3.968750000000000000, -93.66250000000000853, 304.8000000000000114 ) ) ;
#225 = PLANE ( 'NONE',  #275 ) ;
#226 = DIRECTION ( 'NONE',  ( 0.000000000000000000, 0.000000000000000000, 1.000000000000000000 ) ) ;
#227 = CARTESIAN_POINT ( 'NONE',  ( 3.968750000000000000, -93.66250000000000853, -304.8000000000000114 ) ) ;
#228 = COORDINATED_UNIVERSAL_TIME_OFFSET ( 6, 0, .BEHIND. ) ;
#229 = DIRECTION ( 'NONE',  ( 0.000000000000000000, 0.000000000000000000, 1.000000000000000000 ) ) ;
#230 = LINE ( 'NONE', #353, #122 ) ;
#231 = SECURITY_CLASSIFICATION_LEVEL ( 'unclassified' ) ;
#232 = VERTEX_POINT ( 'NONE', #73 ) ;
#233 = COORDINATED_UNIVERSAL_TIME_OFFSET ( 6, 0, .BEHIND. ) ;
#234 = ORIENTED_EDGE ( 'NONE', *, *, #352, .T. ) ;
#235 = VECTOR ( 'NONE', #310, 1000.000000000000000 ) ;
#236 = ADVANCED_FACE ( 'NONE', ( #189 ), #295, .F. ) ;
#237 = FACE_OUTER_BOUND ( 'NONE', #18, .T. ) ;
#238 = PLANE ( 'NONE',  #258 ) ;
#239 = ORIENTED_EDGE ( 'NONE', *, *, #373, .T. ) ;
#240 = ADVANCED_FACE ( 'NONE', ( #237 ), #325, .F. ) ;
#241 = LOCAL_TIME ( 10, 18, 32.00000000000000000, #165 ) ;
#242 = LINE ( 'NONE', #396, #169 ) ;
#243 = ORIENTED_EDGE ( 'NONE', *, *, #366, .F. ) ;
#244 = CARTESIAN_POINT ( 'NONE',  ( 1.984375000000000000, 0.000000000000000000, -304.7999999999999545 ) ) ;
#245 = UNCERTAINTY_MEASURE_WITH_UNIT (LENGTH_MEASURE( 1.000000000000000082E-05 ), #34, 'distance_accuracy_value', 'NONE');
#246 = LINE ( 'NONE', #65, #346 ) ;
#247 = DIRECTION ( 'NONE',  ( 1.000000000000000000, 0.000000000000000000, 0.000000000000000000 ) ) ;
#248 = LOCAL_TIME ( 10, 18, 32.00000000000000000, #233 ) ;
#249 = LINE ( 'NONE', #37, #397 ) ;
#250 = CARTESIAN_POINT ( 'NONE',  ( -3.968750000000000000, -93.66250000000000853, -304.8000000000000114 ) ) ;
#251 = FACE_OUTER_BOUND ( 'NONE', #322, .T. ) ;
#252 = CC_DESIGN_PERSON_AND_ORGANIZATION_ASSIGNMENT ( #267, #113, ( #304 ) ) ;
#253 = PLANE ( 'NONE',  #388 ) ;
#254 = ORIENTED_EDGE ( 'NONE', *, *, #331, .F. ) ;
#255 = APPLICATION_CONTEXT ( 'configuration controlled 3d designs of mechanical parts and assemblies' ) ;
#256 = ADVANCED_FACE ( 'NONE', ( #50 ), #184, .F. ) ;
#257 = PLANE ( 'NONE',  #362 ) ;
#258 = AXIS2_PLACEMENT_3D ( 'NONE', #30, #151, #269 ) ;
#259 = VECTOR ( 'NONE', #7, 1000.000000000000000 ) ;
#260 = DIRECTION ( 'NONE',  ( 0.000000000000000000, 0.000000000000000000, -1.000000000000000000 ) ) ;
#261 = APPLICATION_PROTOCOL_DEFINITION ( 'international standard', 'config_control_design', 1994, #255 ) ;
#262 = ORIENTED_EDGE ( 'NONE', *, *, #216, .F. ) ;
#263 = PERSON_AND_ORGANIZATION_ROLE ( 'design_owner' ) ;
#264 = EDGE_CURVE ( 'NONE', #29, #232, #338, .T. ) ;
#265 = CALENDAR_DATE ( 2025, 20, 11 ) ;
#266 = CC_DESIGN_SECURITY_CLASSIFICATION ( #77, ( #304 ) ) ;
#267 = PERSON_AND_ORGANIZATION ( #148, #210 ) ;
#268 = ORIENTED_EDGE ( 'NONE', *, *, #5, .T. ) ;
#269 = DIRECTION ( 'NONE',  ( -1.000000000000000000, 1.993396579147520059E-15, 0.000000000000000000 ) ) ;
#270 = DIRECTION ( 'NONE',  ( 0.02118168734941669809, -0.9997756428924599037, 0.000000000000000000 ) ) ;
#271 = VECTOR ( 'NONE', #159, 1000.000000000000000 ) ;
#272 = CARTESIAN_POINT ( 'NONE',  ( 3.968750000000000000, -4.163336342344337027E-14, 304.8000000000000114 ) ) ;
#273 = EDGE_CURVE ( 'NONE', #332, #205, #74, .T. ) ;
#274 = AXIS2_PLACEMENT_3D ( 'NONE', #36, #289, #281 ) ;
#275 = AXIS2_PLACEMENT_3D ( 'NONE', #287, #125, #112 ) ;
#276 = DIRECTION ( 'NONE',  ( 0.000000000000000000, 1.000000000000000000, 0.000000000000000000 ) ) ;
#277 = VERTEX_POINT ( 'NONE', #163 ) ;
#278 = ADVANCED_FACE ( 'NONE', ( #72 ), #253, .F. ) ;
#279 = CARTESIAN_POINT ( 'NONE',  ( -1.984375000000000000, 0.000000000000000000, 304.8000000000000114 ) ) ;
#280 = DIRECTION ( 'NONE',  ( -0.000000000000000000, -0.000000000000000000, 1.000000000000000000 ) ) ;
#281 = DIRECTION ( 'NONE',  ( 0.000000000000000000, 0.000000000000000000, -1.000000000000000000 ) ) ;
#282 = VECTOR ( 'NONE', #375, 1000.000000000000000 ) ;
#283 = FACE_OUTER_BOUND ( 'NONE', #15, .T. ) ;
#284 = DESIGN_CONTEXT ( 'detailed design', #255, 'design' ) ;
#285 = CARTESIAN_POINT ( 'NONE',  ( -3.968750000000000000, -93.66250000000000853, -304.8000000000000114 ) ) ;
#286 = CARTESIAN_POINT ( 'NONE',  ( -3.968750000000000000, -93.66250000000000853, -304.8000000000000114 ) ) ;
#287 = CARTESIAN_POINT ( 'NONE',  ( -1.984375000000000000, 0.000000000000000000, 762.0000000000000000 ) ) ;
#288 = DATE_AND_TIME ( #265, #241 ) ;
#289 = DIRECTION ( 'NONE',  ( 1.000000000000000000, 0.000000000000000000, 0.000000000000000000 ) ) ;
#290 = VECTOR ( 'NONE', #329, 1000.000000000000000 ) ;
#291 = CALENDAR_DATE ( 2025, 20, 11 ) ;
#292 = EDGE_LOOP ( 'NONE', ( #176, #117, #351, #20 ) ) ;
#293 = APPROVAL ( #173, 'UNSPECIFIED' ) ;
#294 = ORIENTED_EDGE ( 'NONE', *, *, #216, .T. ) ;
#295 = PLANE ( 'NONE',  #345 ) ;
#296 = ORIENTED_EDGE ( 'NONE', *, *, #23, .T. ) ;
#297 = VECTOR ( 'NONE', #339, 1000.000000000000000 ) ;
#298 = ORIENTED_EDGE ( 'NONE', *, *, #87, .T. ) ;
#299 = ORIENTED_EDGE ( 'NONE', *, *, #93, .F. ) ;
#300 = ORIENTED_EDGE ( 'NONE', *, *, #152, .T. ) ;
#301 = VECTOR ( 'NONE', #126, 1000.000000000000000 ) ;
#302 = PLANE ( 'NONE',  #399 ) ;
#303 = EDGE_CURVE ( 'NONE', #22, #171, #161, .T. ) ;
#304 = PRODUCT_DEFINITION_FORMATION_WITH_SPECIFIED_SOURCE ( 'ANY', '', #52, .NOT_KNOWN. ) ;
#305 = PRODUCT_RELATED_PRODUCT_CATEGORY ( 'detail', '', ( #52 ) ) ;
#306 = ORIENTED_EDGE ( 'NONE', *, *, #70, .F. ) ;
#307 = CARTESIAN_POINT ( 'NONE',  ( -3.968750000000000000, -93.66249999999999432, 762.0000000000000000 ) ) ;
#308 = DIRECTION ( 'NONE',  ( 1.000000000000000000, -1.991608250333761086E-15, 0.000000000000000000 ) ) ;
#309 = DIRECTION ( 'NONE',  ( 0.000000000000000000, 1.000000000000000000, 0.000000000000000000 ) ) ;
#310 = DIRECTION ( 'NONE',  ( 1.000000000000000000, -1.993396579147520059E-15, 0.000000000000000000 ) ) ;
#311 = VECTOR ( 'NONE', #226, 1000.000000000000000 ) ;
#312 = PRODUCT_DEFINITION ( 'UNKNOWN', '', #304, #284 ) ;
#313 = CARTESIAN_POINT ( 'NONE',  ( 1.984375000000000000, -6.938893903907228378E-15, 304.8000000000000114 ) ) ;
#314 = CARTESIAN_POINT ( 'NONE',  ( -3.968750000000000000, -93.66250000000000853, 304.8000000000000114 ) ) ;
#315 = MECHANICAL_CONTEXT ( 'NONE', #103, 'mechanical' ) ;
#316 = LINE ( 'NONE', #285, #393 ) ;
#317 = PERSON_AND_ORGANIZATION ( #148, #210 ) ;
#318 =( NAMED_UNIT ( * ) SI_UNIT ( $, .STERADIAN. ) SOLID_ANGLE_UNIT ( ) );
#319 = CC_DESIGN_APPROVAL ( #364, ( #304 ) ) ;
#320 = ORIENTED_EDGE ( 'NONE', *, *, #12, .T. ) ;
#321 = CALENDAR_DATE ( 2025, 20, 11 ) ;
#322 = EDGE_LOOP ( 'NONE', ( #294, #234, #115, #111 ) ) ;
#323 = COORDINATED_UNIVERSAL_TIME_OFFSET ( 6, 0, .BEHIND. ) ;
#324 = EDGE_LOOP ( 'NONE', ( #63, #27, #95, #80, #147, #141 ) ) ;
#325 = PLANE ( 'NONE',  #41 ) ;
#326 = EDGE_CURVE ( 'NONE', #46, #359, #217, .T. ) ;
#327 = CARTESIAN_POINT ( 'NONE',  ( 1.984375000000000000, -6.938893903907228378E-15, 762.0000000000000000 ) ) ;
#328 = AXIS2_PLACEMENT_3D ( 'NONE', #131, #164, #229 ) ;
#329 = DIRECTION ( 'NONE',  ( -1.000000000000000000, 0.000000000000000000, 0.000000000000000000 ) ) ;
#330 = EDGE_LOOP ( 'NONE', ( #86, #299, #298, #174 ) ) ;
#331 = EDGE_CURVE ( 'NONE', #92, #332, #187, .T. ) ;
#332 = VERTEX_POINT ( 'NONE', #154 ) ;
#333 = APPROVAL_PERSON_ORGANIZATION ( #317, #35, #358 ) ;
#334 = DIRECTION ( 'NONE',  ( -0.000000000000000000, -0.000000000000000000, 1.000000000000000000 ) ) ;
#335 = LINE ( 'NONE', #367, #282 ) ;
#336 = VECTOR ( 'NONE', #309, 1000.000000000000000 ) ;
#337 = ORIENTED_EDGE ( 'NONE', *, *, #273, .T. ) ;
#338 = LINE ( 'NONE', #340, #336 ) ;
#339 = DIRECTION ( 'NONE',  ( 1.000000000000000000, -1.993396579147520059E-15, 0.000000000000000000 ) ) ;
#340 = CARTESIAN_POINT ( 'NONE',  ( 3.968750000000000000, -93.66250000000000853, 304.8000000000000114 ) ) ;
#341 = DIRECTION ( 'NONE',  ( -0.02118168734941639625, -0.9997756428924599037, 0.000000000000000000 ) ) ;
#342 = CARTESIAN_POINT ( 'NONE',  ( -3.968750000000000000, -2.775557561562891351E-14, -304.8000000000000114 ) ) ;
#343 = EDGE_CURVE ( 'NONE', #89, #205, #2, .T. ) ;
#344 = PLANE ( 'NONE',  #274 ) ;
#345 = AXIS2_PLACEMENT_3D ( 'NONE', #53, #211, #24 ) ;
#346 = VECTOR ( 'NONE', #179, 1000.000000000000000 ) ;
#347 = DATE_AND_TIME ( #291, #134 ) ;
#348 = VERTEX_POINT ( 'NONE', #313 ) ;
#349 = DIRECTION ( 'NONE',  ( 0.000000000000000000, 1.000000000000000000, 0.000000000000000000 ) ) ;
#350 = DIRECTION ( 'NONE',  ( 1.000000000000000000, 0.000000000000000000, 0.000000000000000000 ) ) ;
#351 = ORIENTED_EDGE ( 'NONE', *, *, #383, .T. ) ;
#352 = EDGE_CURVE ( 'NONE', #277, #58, #249, .T. ) ;
#353 = CARTESIAN_POINT ( 'NONE',  ( 3.968750000000000000, -1.387778780781445676E-14, 762.0000000000000000 ) ) ;
#354 = CALENDAR_DATE ( 2025, 20, 11 ) ;
#355 = EDGE_LOOP ( 'NONE', ( #145, #296, #206, #361, #156, #33 ) ) ;
#356 = DATE_AND_TIME ( #354, #248 ) ;
#357 = ORIENTED_EDGE ( 'NONE', *, *, #343, .F. ) ;
#358 = APPROVAL_ROLE ( '' ) ;
#359 = VERTEX_POINT ( 'NONE', #43 ) ;
#360 = VERTEX_POINT ( 'NONE', #342 ) ;
#361 = ORIENTED_EDGE ( 'NONE', *, *, #93, .T. ) ;
#362 = AXIS2_PLACEMENT_3D ( 'NONE', #379, #260, #110 ) ;
#363 = CARTESIAN_POINT ( 'NONE',  ( -3.968750000000000000, -93.66250000000000853, -304.8000000000000114 ) ) ;
#364 = APPROVAL ( #114, 'UNSPECIFIED' ) ;
#365 = CARTESIAN_POINT ( 'NONE',  ( -1.984375000000000000, 0.000000000000000000, 304.8000000000000114 ) ) ;
#366 = EDGE_CURVE ( 'NONE', #58, #232, #372, .T. ) ;
#367 = CARTESIAN_POINT ( 'NONE',  ( -1.984375000000000000, 0.000000000000000000, 762.0000000000000000 ) ) ;
#368 = CARTESIAN_POINT ( 'NONE',  ( 1.984375000000000000, 0.000000000000000000, 762.0000000000000000 ) ) ;
#369 = VECTOR ( 'NONE', #96, 1000.000000000000000 ) ;
#370 = VECTOR ( 'NONE', #280, 1000.000000000000000 ) ;
#371 = PLANE ( 'NONE',  #194 ) ;
#372 = LINE ( 'NONE', #377, #6 ) ;
#373 = EDGE_CURVE ( 'NONE', #92, #183, #67, .T. ) ;
#374 = CARTESIAN_POINT ( 'NONE',  ( -1.984375000000000000, 0.000000000000000000, -304.7999999999999545 ) ) ;
#375 = DIRECTION ( 'NONE',  ( 0.000000000000000000, 0.000000000000000000, 1.000000000000000000 ) ) ;
#376 = PLANE ( 'NONE',  #328 ) ;
#377 = CARTESIAN_POINT ( 'NONE',  ( 3.968750000000000000, 7.937500000000000000, 762.0000000000000000 ) ) ;
#378 = EDGE_LOOP ( 'NONE', ( #168, #197, #97, #181 ) ) ;
#379 = CARTESIAN_POINT ( 'NONE',  ( -3.968750000000000000, -93.66250000000000853, 304.8000000000000114 ) ) ;
#380 = AXIS2_PLACEMENT_3D ( 'NONE', #136, #387, #350 ) ;
#381 = VECTOR ( 'NONE', #341, 1000.000000000000000 ) ;
#382 = EDGE_LOOP ( 'NONE', ( #214, #49, #83, #389 ) ) ;
#383 = EDGE_CURVE ( 'NONE', #137, #46, #335, .T. ) ;
#384 = CARTESIAN_POINT ( 'NONE',  ( -1.984375000000000000, 0.000000000000000000, -304.7999999999999545 ) ) ;
#385 = COORDINATED_UNIVERSAL_TIME_OFFSET ( 6, 0, .BEHIND. ) ;
#386 = ORIENTED_EDGE ( 'NONE', *, *, #331, .T. ) ;
#387 = DIRECTION ( 'NONE',  ( 0.000000000000000000, 0.000000000000000000, 1.000000000000000000 ) ) ;
#388 = AXIS2_PLACEMENT_3D ( 'NONE', #190, #4, #218 ) ;
#389 = ORIENTED_EDGE ( 'NONE', *, *, #222, .T. ) ;
#390 = CC_DESIGN_PERSON_AND_ORGANIZATION_ASSIGNMENT ( #200, #263, ( #52 ) ) ;
#391 = CARTESIAN_POINT ( 'NONE',  ( 1.984375000000000000, 0.000000000000000000, 304.8000000000000114 ) ) ;
#392 = ORIENTED_EDGE ( 'NONE', *, *, #198, .T. ) ;
#393 = VECTOR ( 'NONE', #47, 1000.000000000000000 ) ;
#394 = FACE_OUTER_BOUND ( 'NONE', #292, .T. ) ;
#395 = AXIS2_PLACEMENT_3D ( 'NONE', #99, #128, #68 ) ;
#396 = CARTESIAN_POINT ( 'NONE',  ( -3.968749999999813483, 0.000000000000000000, 304.8000000000000114 ) ) ;
#397 = VECTOR ( 'NONE', #276, 1000.000000000000000 ) ;
#398 = ADVANCED_FACE ( 'NONE', ( #283 ), #8, .F. ) ;
#399 = AXIS2_PLACEMENT_3D ( 'NONE', #368, #220, #270 ) ;
ENDSEC;
END-ISO-10303-21;
