ISO-10303-21;
HEADER;
FILE_DESCRIPTION (( 'STEP AP203' ),
    '1' );
FILE_NAME ('REV-21-2092.STEP',
    '2022-04-27T19:43:17',
    ( '' ),
    ( '' ),
    'SwSTEP 2.0',
    'SolidWorks 2022',
    '' );
FILE_SCHEMA (( 'CONFIG_CONTROL_DESIGN' ));
ENDSEC;

DATA;
#1 = ORGANIZATION ( 'UNSPECIFIED', 'UNSPECIFIED', '' ) ;
#2 = CYLINDRICAL_SURFACE ( 'NONE', #19, 0.09842519685039370636 ) ;
#3 = CARTESIAN_POINT ( 'NONE',  ( 1.000000000000000000, 1.205361022782828035E-17, -0.09842519685039370636 ) ) ;
#4 = LENGTH_MEASURE_WITH_UNIT ( LENGTH_MEASURE( 0.02539999999999999897 ), #127 );
#5 = CC_DESIGN_PERSON_AND_ORGANIZATION_ASSIGNMENT ( #165, #10, ( #59 ) ) ;
#6 =( NAMED_UNIT ( * ) PLANE_ANGLE_UNIT ( ) SI_UNIT ( $, .RADIAN. ) );
#7 = LINE ( 'NONE', #164, #71 ) ;
#8 = APPROVAL_DATE_TIME ( #72, #181 ) ;
#9 = COORDINATED_UNIVERSAL_TIME_OFFSET ( 6, 0, .BEHIND. ) ;
#10 = PERSON_AND_ORGANIZATION_ROLE ( 'design_supplier' ) ;
#11 = ORIENTED_EDGE ( 'NONE', *, *, #97, .T. ) ;
#12 = APPROVAL_STATUS ( 'not_yet_approved' ) ;
#13 = AXIS2_PLACEMENT_3D ( 'NONE', #211, #174, #235 ) ;
#14 = AXIS2_PLACEMENT_3D ( 'NONE', #220, #182, #203 ) ;
#15 = EDGE_CURVE ( 'NONE', #30, #92, #143, .T. ) ;
#16 = DIRECTION ( 'NONE',  ( 0.000000000000000000, 0.000000000000000000, 1.000000000000000000 ) ) ;
#17 = ADVANCED_FACE ( 'NONE', ( #57, #252 ), #153, .F. ) ;
#18 = DIRECTION ( 'NONE',  ( -1.000000000000000000, -0.000000000000000000, -0.000000000000000000 ) ) ;
#19 = AXIS2_PLACEMENT_3D ( 'NONE', #230, #210, #81 ) ;
#20 = ORIENTED_EDGE ( 'NONE', *, *, #221, .F. ) ;
#21 = UNCERTAINTY_MEASURE_WITH_UNIT (LENGTH_MEASURE( 1.000000000000000082E-05 ), #219, 'distance_accuracy_value', 'NONE');
#22 = ORIENTED_EDGE ( 'NONE', *, *, #49, .T. ) ;
#23 = LOCAL_TIME ( 14, 43, 17.00000000000000000, #243 ) ;
#24 = CARTESIAN_POINT ( 'NONE',  ( 1.000000000000000000, 0.1875000000000000278, 0.000000000000000000 ) ) ;
#25 = AXIS2_PLACEMENT_3D ( 'NONE', #125, #124, #198 ) ;
#26 = PRODUCT_DEFINITION ( 'UNKNOWN', '', #59, #142 ) ;
#27 = CARTESIAN_POINT ( 'NONE',  ( 1.000000000000000000, 2.296212748401287726E-17, -0.1875000000000000278 ) ) ;
#28 = APPROVAL_PERSON_ORGANIZATION ( #65, #181, #46 ) ;
#29 = CARTESIAN_POINT ( 'NONE',  ( -1.000000000000000000, 0.000000000000000000, 0.1875000000000000278 ) ) ;
#30 = VERTEX_POINT ( 'NONE', #141 ) ;
#31 = PERSON_AND_ORGANIZATION ( #214, #1 ) ;
#32 = ORIENTED_EDGE ( 'NONE', *, *, #86, .F. ) ;
#33 = PERSON_AND_ORGANIZATION_ROLE ( 'classification_officer' ) ;
#34 = CC_DESIGN_APPROVAL ( #250, ( #240 ) ) ;
#35 = COORDINATED_UNIVERSAL_TIME_OFFSET ( 6, 0, .BEHIND. ) ;
#36 = ORIENTED_EDGE ( 'NONE', *, *, #86, .T. ) ;
#37 = DIRECTION ( 'NONE',  ( -1.000000000000000000, -0.000000000000000000, -0.000000000000000000 ) ) ;
#38 = CYLINDRICAL_SURFACE ( 'NONE', #84, 0.1875000000000000278 ) ;
#39 = AXIS2_PLACEMENT_3D ( 'NONE', #200, #62, #48 ) ;
#40 = ORIENTED_EDGE ( 'NONE', *, *, #97, .F. ) ;
#41 = CARTESIAN_POINT ( 'NONE',  ( -1.000000000000000000, 0.000000000000000000, 0.000000000000000000 ) ) ;
#42 = CARTESIAN_POINT ( 'NONE',  ( -1.000000000000000000, 0.000000000000000000, 0.000000000000000000 ) ) ;
#43 = CLOSED_SHELL ( 'NONE', ( #184, #64, #17, #163, #60, #51 ) ) ;
#44 = CYLINDRICAL_SURFACE ( 'NONE', #25, 0.09842519685039370636 ) ;
#45 = CC_DESIGN_PERSON_AND_ORGANIZATION_ASSIGNMENT ( #52, #33, ( #240 ) ) ;
#46 = APPROVAL_ROLE ( '' ) ;
#47 = LOCAL_TIME ( 14, 43, 17.00000000000000000, #9 ) ;
#48 = DIRECTION ( 'NONE',  ( 0.000000000000000000, 0.000000000000000000, 1.000000000000000000 ) ) ;
#49 = EDGE_CURVE ( 'NONE', #171, #92, #140, .T. ) ;
#50 = AXIS2_PLACEMENT_3D ( 'NONE', #76, #191, #16 ) ;
#51 = ADVANCED_FACE ( 'NONE', ( #157 ), #38, .T. ) ;
#52 = PERSON_AND_ORGANIZATION ( #214, #1 ) ;
#53 = VERTEX_POINT ( 'NONE', #122 ) ;
#54 = MANIFOLD_SOLID_BREP ( 'Revolve1', #43 ) ;
#55 = CARTESIAN_POINT ( 'NONE',  ( -1.000000000000000000, 0.000000000000000000, 0.09842519685039370636 ) ) ;
#56 = ORIENTED_EDGE ( 'NONE', *, *, #221, .T. ) ;
#57 = FACE_BOUND ( 'NONE', #175, .T. ) ;
#58 = CIRCLE ( 'NONE', #93, 0.1875000000000000278 ) ;
#59 = PRODUCT_DEFINITION_FORMATION_WITH_SPECIFIED_SOURCE ( 'ANY', '', #156, .NOT_KNOWN. ) ;
#60 = ADVANCED_FACE ( 'NONE', ( #196, #159 ), #98, .F. ) ;
#61 = ORIENTED_EDGE ( 'NONE', *, *, #15, .F. ) ;
#62 = DIRECTION ( 'NONE',  ( -1.000000000000000000, -0.000000000000000000, -0.000000000000000000 ) ) ;
#63 = DIRECTION ( 'NONE',  ( 1.000000000000000000, 0.000000000000000000, 0.000000000000000000 ) ) ;
#64 = ADVANCED_FACE ( 'NONE', ( #100 ), #2, .F. ) ;
#65 = PERSON_AND_ORGANIZATION ( #214, #1 ) ;
#66 = FACE_OUTER_BOUND ( 'NONE', #248, .T. ) ;
#67 = LINE ( 'NONE', #144, #212 ) ;
#68 = EDGE_CURVE ( 'NONE', #92, #171, #201, .T. ) ;
#69 = DATE_TIME_ROLE ( 'creation_date' ) ;
#70 = AXIS2_PLACEMENT_3D ( 'NONE', #41, #18, #137 ) ;
#71 = VECTOR ( 'NONE', #236, 39.37007874015748143 ) ;
#72 = DATE_AND_TIME ( #113, #222 ) ;
#73 = VERTEX_POINT ( 'NONE', #209 ) ;
#74 = ORIENTED_EDGE ( 'NONE', *, *, #68, .T. ) ;
#75 = LOCAL_TIME ( 14, 43, 17.00000000000000000, #152 ) ;
#76 = CARTESIAN_POINT ( 'NONE',  ( 1.000000000000000000, 0.000000000000000000, 0.000000000000000000 ) ) ;
#77 = DIRECTION ( 'NONE',  ( 1.000000000000000000, 0.000000000000000000, 0.000000000000000000 ) ) ;
#78 = ORIENTED_EDGE ( 'NONE', *, *, #158, .T. ) ;
#79 = ADVANCED_BREP_SHAPE_REPRESENTATION ( 'REV-21-2092', ( #54, #245 ), #126 ) ;
#80 = CARTESIAN_POINT ( 'NONE',  ( -1.000000000000000000, 0.1875000000000000278, 0.000000000000000000 ) ) ;
#81 = DIRECTION ( 'NONE',  ( 0.000000000000000000, 0.000000000000000000, 1.000000000000000000 ) ) ;
#82 = DIRECTION ( 'NONE',  ( 0.000000000000000000, 0.000000000000000000, 1.000000000000000000 ) ) ;
#83 = PERSON_AND_ORGANIZATION ( #214, #1 ) ;
#84 = AXIS2_PLACEMENT_3D ( 'NONE', #155, #213, #192 ) ;
#85 = APPLICATION_PROTOCOL_DEFINITION ( 'international standard', 'config_control_design', 1994, #208 ) ;
#86 = EDGE_CURVE ( 'NONE', #73, #232, #154, .T. ) ;
#87 = FACE_OUTER_BOUND ( 'NONE', #172, .T. ) ;
#88 = ORIENTED_EDGE ( 'NONE', *, *, #68, .F. ) ;
#89 = CALENDAR_DATE ( 2022, 27, 4 ) ;
#90 = ORIENTED_EDGE ( 'NONE', *, *, #231, .T. ) ;
#91 = EDGE_CURVE ( 'NONE', #73, #121, #119, .T. ) ;
#92 = VERTEX_POINT ( 'NONE', #55 ) ;
#93 = AXIS2_PLACEMENT_3D ( 'NONE', #147, #161, #180 ) ;
#94 = SECURITY_CLASSIFICATION_LEVEL ( 'unclassified' ) ;
#95 = CC_DESIGN_APPROVAL ( #228, ( #59 ) ) ;
#96 = EDGE_LOOP ( 'NONE', ( #20, #234, #36, #139 ) ) ;
#97 = EDGE_CURVE ( 'NONE', #187, #30, #237, .T. ) ;
#98 = PLANE ( 'NONE',  #162 ) ;
#99 = CARTESIAN_POINT ( 'NONE',  ( 1.000000000000000000, 0.000000000000000000, 0.000000000000000000 ) ) ;
#100 = FACE_OUTER_BOUND ( 'NONE', #109, .T. ) ;
#101 = EDGE_CURVE ( 'NONE', #121, #73, #169, .T. ) ;
#102 = ORIENTED_EDGE ( 'NONE', *, *, #101, .F. ) ;
#103 = DIMENSIONAL_EXPONENTS ( 1.000000000000000000, 0.000000000000000000, 0.000000000000000000, 0.000000000000000000, 0.000000000000000000, 0.000000000000000000, 0.000000000000000000 ) ;
#104 = DIRECTION ( 'NONE',  ( 0.000000000000000000, 0.000000000000000000, -1.000000000000000000 ) ) ;
#105 = DIRECTION ( 'NONE',  ( -1.000000000000000000, -0.000000000000000000, -0.000000000000000000 ) ) ;
#106 = VECTOR ( 'NONE', #116, 39.37007874015748143 ) ;
#107 = CYLINDRICAL_SURFACE ( 'NONE', #233, 0.1875000000000000278 ) ;
#108 = APPROVAL_DATE_TIME ( #148, #250 ) ;
#109 = EDGE_LOOP ( 'NONE', ( #40, #90, #22, #61 ) ) ;
#110 = PERSON_AND_ORGANIZATION_ROLE ( 'creator' ) ;
#111 = ORIENTED_EDGE ( 'NONE', *, *, #205, .F. ) ;
#112 = CALENDAR_DATE ( 2022, 27, 4 ) ;
#113 = CALENDAR_DATE ( 2022, 27, 4 ) ;
#114 = LOCAL_TIME ( 14, 43, 17.00000000000000000, #35 ) ;
#115 = ORIENTED_EDGE ( 'NONE', *, *, #177, .T. ) ;
#116 = DIRECTION ( 'NONE',  ( -1.000000000000000000, -0.000000000000000000, -0.000000000000000000 ) ) ;
#117 = EDGE_LOOP ( 'NONE', ( #251, #102 ) ) ;
#118 = PRODUCT_RELATED_PRODUCT_CATEGORY ( 'detail', '', ( #156 ) ) ;
#119 = CIRCLE ( 'NONE', #50, 0.1875000000000000278 ) ;
#120 = DIRECTION ( 'NONE',  ( -1.000000000000000000, -0.000000000000000000, -0.000000000000000000 ) ) ;
#121 = VERTEX_POINT ( 'NONE', #27 ) ;
#122 = CARTESIAN_POINT ( 'NONE',  ( -1.000000000000000000, 2.296212748401287726E-17, -0.1875000000000000278 ) ) ;
#123 = PRODUCT_DEFINITION_SHAPE ( 'NONE', 'NONE',  #26 ) ;
#124 = DIRECTION ( 'NONE',  ( -1.000000000000000000, -0.000000000000000000, -0.000000000000000000 ) ) ;
#125 = CARTESIAN_POINT ( 'NONE',  ( -1.000000000000000000, 0.000000000000000000, 0.000000000000000000 ) ) ;
#126 =( GEOMETRIC_REPRESENTATION_CONTEXT ( 3 ) GLOBAL_UNCERTAINTY_ASSIGNED_CONTEXT ( ( #21 ) ) GLOBAL_UNIT_ASSIGNED_CONTEXT ( ( #219, #6, #216 ) ) REPRESENTATION_CONTEXT ( 'NONE', 'WORKASPACE' ) );
#127 =( LENGTH_UNIT ( ) NAMED_UNIT ( * ) SI_UNIT ( $, .METRE. ) );
#128 = SHAPE_DEFINITION_REPRESENTATION ( #123, #79 ) ;
#129 = CALENDAR_DATE ( 2022, 27, 4 ) ;
#130 = VECTOR ( 'NONE', #195, 39.37007874015748143 ) ;
#131 = CALENDAR_DATE ( 2022, 27, 4 ) ;
#132 = DATE_AND_TIME ( #89, #114 ) ;
#133 = EDGE_LOOP ( 'NONE', ( #115, #11 ) ) ;
#134 = CC_DESIGN_PERSON_AND_ORGANIZATION_ASSIGNMENT ( #186, #206, ( #26 ) ) ;
#135 = CIRCLE ( 'NONE', #14, 0.09842519685039370636 ) ;
#136 = DIRECTION ( 'NONE',  ( -1.000000000000000000, 0.000000000000000000, -0.000000000000000000 ) ) ;
#137 = DIRECTION ( 'NONE',  ( 0.000000000000000000, 0.000000000000000000, 1.000000000000000000 ) ) ;
#138 = CC_DESIGN_PERSON_AND_ORGANIZATION_ASSIGNMENT ( #31, #110, ( #59 ) ) ;
#139 = ORIENTED_EDGE ( 'NONE', *, *, #158, .F. ) ;
#140 = CIRCLE ( 'NONE', #70, 0.09842519685039370636 ) ;
#141 = CARTESIAN_POINT ( 'NONE',  ( 1.000000000000000000, 0.000000000000000000, 0.09842519685039370636 ) ) ;
#142 = DESIGN_CONTEXT ( 'detailed design', #223, 'design' ) ;
#143 = LINE ( 'NONE', #215, #130 ) ;
#144 = CARTESIAN_POINT ( 'NONE',  ( -1.000000000000000000, 1.205361022782828035E-17, -0.09842519685039370636 ) ) ;
#145 = APPROVAL_STATUS ( 'not_yet_approved' ) ;
#146 = APPLICATION_PROTOCOL_DEFINITION ( 'international standard', 'config_control_design', 1994, #223 ) ;
#147 = CARTESIAN_POINT ( 'NONE',  ( -1.000000000000000000, 0.000000000000000000, 0.000000000000000000 ) ) ;
#148 = DATE_AND_TIME ( #131, #75 ) ;
#149 = DATE_AND_TIME ( #112, #23 ) ;
#150 = CIRCLE ( 'NONE', #39, 0.1875000000000000278 ) ;
#151 = APPROVAL_STATUS ( 'not_yet_approved' ) ;
#152 = COORDINATED_UNIVERSAL_TIME_OFFSET ( 6, 0, .BEHIND. ) ;
#153 = PLANE ( 'NONE',  #217 ) ;
#154 = LINE ( 'NONE', #229, #106 ) ;
#155 = CARTESIAN_POINT ( 'NONE',  ( -1.000000000000000000, 0.000000000000000000, 0.000000000000000000 ) ) ;
#156 = PRODUCT ( 'REV-21-2092', 'REV-21-2092', '', ( #218 ) ) ;
#157 = FACE_OUTER_BOUND ( 'NONE', #96, .T. ) ;
#158 = EDGE_CURVE ( 'NONE', #53, #232, #58, .T. ) ;
#159 = FACE_BOUND ( 'NONE', #133, .T. ) ;
#160 = DIRECTION ( 'NONE',  ( 0.000000000000000000, 0.000000000000000000, 1.000000000000000000 ) ) ;
#161 = DIRECTION ( 'NONE',  ( -1.000000000000000000, -0.000000000000000000, -0.000000000000000000 ) ) ;
#162 = AXIS2_PLACEMENT_3D ( 'NONE', #24, #136, #178 ) ;
#163 = ADVANCED_FACE ( 'NONE', ( #87 ), #44, .F. ) ;
#164 = CARTESIAN_POINT ( 'NONE',  ( -1.000000000000000000, 2.296212748401287726E-17, -0.1875000000000000278 ) ) ;
#165 = PERSON_AND_ORGANIZATION ( #214, #1 ) ;
#166 = ORIENTED_EDGE ( 'NONE', *, *, #15, .T. ) ;
#167 = ORIENTED_EDGE ( 'NONE', *, *, #91, .T. ) ;
#168 = CC_DESIGN_DATE_AND_TIME_ASSIGNMENT ( #149, #188, ( #240 ) ) ;
#169 = CIRCLE ( 'NONE', #193, 0.1875000000000000278 ) ;
#170 = CC_DESIGN_APPROVAL ( #181, ( #26 ) ) ;
#171 = VERTEX_POINT ( 'NONE', #199 ) ;
#172 = EDGE_LOOP ( 'NONE', ( #247, #204, #166, #74 ) ) ;
#173 = DIRECTION ( 'NONE',  ( 0.000000000000000000, 0.000000000000000000, 1.000000000000000000 ) ) ;
#174 = DIRECTION ( 'NONE',  ( -1.000000000000000000, -0.000000000000000000, -0.000000000000000000 ) ) ;
#175 = EDGE_LOOP ( 'NONE', ( #88, #190 ) ) ;
#176 = APPROVAL_PERSON_ORGANIZATION ( #185, #250, #242 ) ;
#177 = EDGE_CURVE ( 'NONE', #30, #187, #135, .T. ) ;
#178 = DIRECTION ( 'NONE',  ( -0.000000000000000000, 0.000000000000000000, 1.000000000000000000 ) ) ;
#179 = CARTESIAN_POINT ( 'NONE',  ( 0.000000000000000000, 0.000000000000000000, 0.000000000000000000 ) ) ;
#180 = DIRECTION ( 'NONE',  ( 0.000000000000000000, 0.000000000000000000, 1.000000000000000000 ) ) ;
#181 = APPROVAL ( #145, 'UNSPECIFIED' ) ;
#182 = DIRECTION ( 'NONE',  ( -1.000000000000000000, -0.000000000000000000, -0.000000000000000000 ) ) ;
#183 = DIRECTION ( 'NONE',  ( -1.000000000000000000, -0.000000000000000000, -0.000000000000000000 ) ) ;
#184 = ADVANCED_FACE ( 'NONE', ( #66 ), #107, .T. ) ;
#185 = PERSON_AND_ORGANIZATION ( #214, #1 ) ;
#186 = PERSON_AND_ORGANIZATION ( #214, #1 ) ;
#187 = VERTEX_POINT ( 'NONE', #3 ) ;
#188 = DATE_TIME_ROLE ( 'classification_date' ) ;
#189 = APPROVAL_ROLE ( '' ) ;
#190 = ORIENTED_EDGE ( 'NONE', *, *, #49, .F. ) ;
#191 = DIRECTION ( 'NONE',  ( -1.000000000000000000, -0.000000000000000000, -0.000000000000000000 ) ) ;
#192 = DIRECTION ( 'NONE',  ( 0.000000000000000000, 0.000000000000000000, 1.000000000000000000 ) ) ;
#193 = AXIS2_PLACEMENT_3D ( 'NONE', #249, #120, #194 ) ;
#194 = DIRECTION ( 'NONE',  ( 0.000000000000000000, 0.000000000000000000, 1.000000000000000000 ) ) ;
#195 = DIRECTION ( 'NONE',  ( -1.000000000000000000, -0.000000000000000000, -0.000000000000000000 ) ) ;
#196 = FACE_OUTER_BOUND ( 'NONE', #117, .T. ) ;
#197 = CC_DESIGN_SECURITY_CLASSIFICATION ( #240, ( #59 ) ) ;
#198 = DIRECTION ( 'NONE',  ( 0.000000000000000000, 0.000000000000000000, 1.000000000000000000 ) ) ;
#199 = CARTESIAN_POINT ( 'NONE',  ( -1.000000000000000000, 1.205361022782828035E-17, -0.09842519685039370636 ) ) ;
#200 = CARTESIAN_POINT ( 'NONE',  ( -1.000000000000000000, 0.000000000000000000, 0.000000000000000000 ) ) ;
#201 = CIRCLE ( 'NONE', #13, 0.09842519685039370636 ) ;
#202 = APPROVAL_PERSON_ORGANIZATION ( #224, #228, #189 ) ;
#203 = DIRECTION ( 'NONE',  ( 0.000000000000000000, 0.000000000000000000, 1.000000000000000000 ) ) ;
#204 = ORIENTED_EDGE ( 'NONE', *, *, #177, .F. ) ;
#205 = EDGE_CURVE ( 'NONE', #232, #53, #150, .T. ) ;
#206 = PERSON_AND_ORGANIZATION_ROLE ( 'creator' ) ;
#207 = APPROVAL_DATE_TIME ( #227, #228 ) ;
#208 = APPLICATION_CONTEXT ( 'configuration controlled 3d designs of mechanical parts and assemblies' ) ;
#209 = CARTESIAN_POINT ( 'NONE',  ( 1.000000000000000000, 0.000000000000000000, 0.1875000000000000278 ) ) ;
#210 = DIRECTION ( 'NONE',  ( -1.000000000000000000, -0.000000000000000000, -0.000000000000000000 ) ) ;
#211 = CARTESIAN_POINT ( 'NONE',  ( -1.000000000000000000, 0.000000000000000000, 0.000000000000000000 ) ) ;
#212 = VECTOR ( 'NONE', #105, 39.37007874015748143 ) ;
#213 = DIRECTION ( 'NONE',  ( -1.000000000000000000, -0.000000000000000000, -0.000000000000000000 ) ) ;
#214 = PERSON ( 'UNSPECIFIED', 'UNSPECIFIED', 'UNSPECIFIED', ('UNSPECIFIED'), ('UNSPECIFIED'), ('UNSPECIFIED') ) ;
#215 = CARTESIAN_POINT ( 'NONE',  ( -1.000000000000000000, 0.000000000000000000, 0.09842519685039370636 ) ) ;
#216 =( NAMED_UNIT ( * ) SI_UNIT ( $, .STERADIAN. ) SOLID_ANGLE_UNIT ( ) );
#217 = AXIS2_PLACEMENT_3D ( 'NONE', #80, #77, #104 ) ;
#218 = MECHANICAL_CONTEXT ( 'NONE', #208, 'mechanical' ) ;
#219 =( CONVERSION_BASED_UNIT ( 'INCH', #4 ) LENGTH_UNIT ( ) NAMED_UNIT ( #103 ) );
#220 = CARTESIAN_POINT ( 'NONE',  ( 1.000000000000000000, 0.000000000000000000, 0.000000000000000000 ) ) ;
#221 = EDGE_CURVE ( 'NONE', #121, #53, #7, .T. ) ;
#222 = LOCAL_TIME ( 14, 43, 17.00000000000000000, #239 ) ;
#223 = APPLICATION_CONTEXT ( 'configuration controlled 3d designs of mechanical parts and assemblies' ) ;
#224 = PERSON_AND_ORGANIZATION ( #214, #1 ) ;
#225 = CC_DESIGN_PERSON_AND_ORGANIZATION_ASSIGNMENT ( #83, #238, ( #156 ) ) ;
#226 = ORIENTED_EDGE ( 'NONE', *, *, #205, .T. ) ;
#227 = DATE_AND_TIME ( #129, #47 ) ;
#228 = APPROVAL ( #151, 'UNSPECIFIED' ) ;
#229 = CARTESIAN_POINT ( 'NONE',  ( -1.000000000000000000, 0.000000000000000000, 0.1875000000000000278 ) ) ;
#230 = CARTESIAN_POINT ( 'NONE',  ( -1.000000000000000000, 0.000000000000000000, 0.000000000000000000 ) ) ;
#231 = EDGE_CURVE ( 'NONE', #187, #171, #67, .T. ) ;
#232 = VERTEX_POINT ( 'NONE', #29 ) ;
#233 = AXIS2_PLACEMENT_3D ( 'NONE', #42, #183, #82 ) ;
#234 = ORIENTED_EDGE ( 'NONE', *, *, #101, .T. ) ;
#235 = DIRECTION ( 'NONE',  ( 0.000000000000000000, 0.000000000000000000, 1.000000000000000000 ) ) ;
#236 = DIRECTION ( 'NONE',  ( -1.000000000000000000, -0.000000000000000000, -0.000000000000000000 ) ) ;
#237 = CIRCLE ( 'NONE', #241, 0.09842519685039370636 ) ;
#238 = PERSON_AND_ORGANIZATION_ROLE ( 'design_owner' ) ;
#239 = COORDINATED_UNIVERSAL_TIME_OFFSET ( 6, 0, .BEHIND. ) ;
#240 = SECURITY_CLASSIFICATION ( '', '', #94 ) ;
#241 = AXIS2_PLACEMENT_3D ( 'NONE', #99, #37, #173 ) ;
#242 = APPROVAL_ROLE ( '' ) ;
#243 = COORDINATED_UNIVERSAL_TIME_OFFSET ( 6, 0, .BEHIND. ) ;
#244 = EDGE_LOOP ( 'NONE', ( #226, #78 ) ) ;
#245 = AXIS2_PLACEMENT_3D ( 'NONE', #179, #160, #63 ) ;
#246 = CC_DESIGN_DATE_AND_TIME_ASSIGNMENT ( #132, #69, ( #26 ) ) ;
#247 = ORIENTED_EDGE ( 'NONE', *, *, #231, .F. ) ;
#248 = EDGE_LOOP ( 'NONE', ( #167, #56, #111, #32 ) ) ;
#249 = CARTESIAN_POINT ( 'NONE',  ( 1.000000000000000000, 0.000000000000000000, 0.000000000000000000 ) ) ;
#250 = APPROVAL ( #12, 'UNSPECIFIED' ) ;
#251 = ORIENTED_EDGE ( 'NONE', *, *, #91, .F. ) ;
#252 = FACE_OUTER_BOUND ( 'NONE', #244, .T. ) ;
ENDSEC;
END-ISO-10303-21;
