ISO-10303-21;
HEADER;
FILE_DESCRIPTION (( 'STEP AP203' ),
    '1' );
FILE_NAME ('REV-21-2088.STEP',
    '2022-04-27T19:42:06',
    ( '' ),
    ( '' ),
    'SwSTEP 2.0',
    'SolidWorks 2022',
    '' );
FILE_SCHEMA (( 'CONFIG_CONTROL_DESIGN' ));
ENDSEC;

DATA;
#1 = ADVANCED_FACE ( 'NONE', ( #169, #182 ), #245, .F. ) ;
#2 = COORDINATED_UNIVERSAL_TIME_OFFSET ( 6, 0, .BEHIND. ) ;
#3 = CIRCLE ( 'NONE', #178, 0.09842519685039370636 ) ;
#4 = DIRECTION ( 'NONE',  ( 1.000000000000000000, 0.000000000000000000, 0.000000000000000000 ) ) ;
#5 = APPROVAL_STATUS ( 'not_yet_approved' ) ;
#6 = AXIS2_PLACEMENT_3D ( 'NONE', #101, #104, #179 ) ;
#7 = APPROVAL ( #62, 'UNSPECIFIED' ) ;
#8 = LINE ( 'NONE', #86, #95 ) ;
#9 = ORIENTED_EDGE ( 'NONE', *, *, #110, .F. ) ;
#10 = DIRECTION ( 'NONE',  ( 0.000000000000000000, 0.000000000000000000, -1.000000000000000000 ) ) ;
#11 = CARTESIAN_POINT ( 'NONE',  ( 0.2500000000000000000, 0.000000000000000000, 0.09842519685039370636 ) ) ;
#12 = ORIENTED_EDGE ( 'NONE', *, *, #28, .T. ) ;
#13 = ORIENTED_EDGE ( 'NONE', *, *, #100, .T. ) ;
#14 = PRODUCT_DEFINITION_FORMATION_WITH_SPECIFIED_SOURCE ( 'ANY', '', #199, .NOT_KNOWN. ) ;
#15 = LOCAL_TIME ( 14, 42, 6.000000000000000000, #237 ) ;
#16 = DIRECTION ( 'NONE',  ( -0.000000000000000000, 0.000000000000000000, 1.000000000000000000 ) ) ;
#17 = DIRECTION ( 'NONE',  ( -1.000000000000000000, -0.000000000000000000, -0.000000000000000000 ) ) ;
#18 = DATE_TIME_ROLE ( 'creation_date' ) ;
#19 = APPROVAL ( #5, 'UNSPECIFIED' ) ;
#20 = APPLICATION_CONTEXT ( 'configuration controlled 3d designs of mechanical parts and assemblies' ) ;
#21 = DATE_AND_TIME ( #117, #47 ) ;
#22 = DATE_TIME_ROLE ( 'classification_date' ) ;
#23 = DIRECTION ( 'NONE',  ( 0.000000000000000000, 0.000000000000000000, 1.000000000000000000 ) ) ;
#24 = ORIENTED_EDGE ( 'NONE', *, *, #149, .F. ) ;
#25 = EDGE_LOOP ( 'NONE', ( #55, #181, #9, #124 ) ) ;
#26 = AXIS2_PLACEMENT_3D ( 'NONE', #148, #248, #94 ) ;
#27 = ORIENTED_EDGE ( 'NONE', *, *, #83, .F. ) ;
#28 = EDGE_CURVE ( 'NONE', #49, #224, #130, .T. ) ;
#29 = FACE_OUTER_BOUND ( 'NONE', #186, .T. ) ;
#30 = DIRECTION ( 'NONE',  ( 0.000000000000000000, 0.000000000000000000, 1.000000000000000000 ) ) ;
#31 = CIRCLE ( 'NONE', #213, 0.1875000000000000278 ) ;
#32 = CARTESIAN_POINT ( 'NONE',  ( -0.2500000000000000000, 0.000000000000000000, 0.000000000000000000 ) ) ;
#33 = EDGE_LOOP ( 'NONE', ( #24, #70 ) ) ;
#34 =( CONVERSION_BASED_UNIT ( 'INCH', #54 ) LENGTH_UNIT ( ) NAMED_UNIT ( #59 ) );
#35 = ORIENTED_EDGE ( 'NONE', *, *, #216, .T. ) ;
#36 = AXIS2_PLACEMENT_3D ( 'NONE', #37, #50, #167 ) ;
#37 = CARTESIAN_POINT ( 'NONE',  ( 0.2500000000000000000, 0.000000000000000000, 0.000000000000000000 ) ) ;
#38 = FACE_BOUND ( 'NONE', #33, .T. ) ;
#39 = CC_DESIGN_DATE_AND_TIME_ASSIGNMENT ( #193, #18, ( #234 ) ) ;
#40 = PERSON_AND_ORGANIZATION ( #56, #151 ) ;
#41 = LOCAL_TIME ( 14, 42, 6.000000000000000000, #236 ) ;
#42 = CARTESIAN_POINT ( 'NONE',  ( 0.000000000000000000, 0.000000000000000000, 0.000000000000000000 ) ) ;
#43 = EDGE_CURVE ( 'NONE', #75, #111, #171, .T. ) ;
#44 = SECURITY_CLASSIFICATION_LEVEL ( 'unclassified' ) ;
#45 = DIRECTION ( 'NONE',  ( -1.000000000000000000, -0.000000000000000000, -0.000000000000000000 ) ) ;
#46 = VERTEX_POINT ( 'NONE', #145 ) ;
#47 = LOCAL_TIME ( 14, 42, 6.000000000000000000, #211 ) ;
#48 = DIRECTION ( 'NONE',  ( 0.000000000000000000, 0.000000000000000000, 1.000000000000000000 ) ) ;
#49 = VERTEX_POINT ( 'NONE', #221 ) ;
#50 = DIRECTION ( 'NONE',  ( -1.000000000000000000, -0.000000000000000000, -0.000000000000000000 ) ) ;
#51 = CARTESIAN_POINT ( 'NONE',  ( -0.2500000000000000000, 0.000000000000000000, 0.1875000000000000278 ) ) ;
#52 = EDGE_CURVE ( 'NONE', #239, #49, #208, .T. ) ;
#53 = ORIENTED_EDGE ( 'NONE', *, *, #203, .F. ) ;
#54 = LENGTH_MEASURE_WITH_UNIT ( LENGTH_MEASURE( 0.02539999999999999897 ), #187 );
#55 = ORIENTED_EDGE ( 'NONE', *, *, #203, .T. ) ;
#56 = PERSON ( 'UNSPECIFIED', 'UNSPECIFIED', 'UNSPECIFIED', ('UNSPECIFIED'), ('UNSPECIFIED'), ('UNSPECIFIED') ) ;
#57 = ORIENTED_EDGE ( 'NONE', *, *, #100, .F. ) ;
#58 = CIRCLE ( 'NONE', #107, 0.09842519685039370636 ) ;
#59 = DIMENSIONAL_EXPONENTS ( 1.000000000000000000, 0.000000000000000000, 0.000000000000000000, 0.000000000000000000, 0.000000000000000000, 0.000000000000000000, 0.000000000000000000 ) ;
#60 = DIRECTION ( 'NONE',  ( -1.000000000000000000, -0.000000000000000000, -0.000000000000000000 ) ) ;
#61 = DIRECTION ( 'NONE',  ( -1.000000000000000000, -0.000000000000000000, -0.000000000000000000 ) ) ;
#62 = APPROVAL_STATUS ( 'not_yet_approved' ) ;
#63 = MANIFOLD_SOLID_BREP ( 'Revolve1', #102 ) ;
#64 = UNCERTAINTY_MEASURE_WITH_UNIT (LENGTH_MEASURE( 1.000000000000000082E-05 ), #34, 'distance_accuracy_value', 'NONE');
#65 = AXIS2_PLACEMENT_3D ( 'NONE', #42, #196, #4 ) ;
#66 = PERSON_AND_ORGANIZATION ( #56, #151 ) ;
#67 = APPLICATION_PROTOCOL_DEFINITION ( 'international standard', 'config_control_design', 1994, #20 ) ;
#68 = ADVANCED_FACE ( 'NONE', ( #153 ), #226, .F. ) ;
#69 = ADVANCED_BREP_SHAPE_REPRESENTATION ( 'REV-21-2088', ( #63, #65 ), #125 ) ;
#70 = ORIENTED_EDGE ( 'NONE', *, *, #220, .F. ) ;
#71 = CC_DESIGN_PERSON_AND_ORGANIZATION_ASSIGNMENT ( #40, #250, ( #234 ) ) ;
#72 = DIRECTION ( 'NONE',  ( -1.000000000000000000, -0.000000000000000000, -0.000000000000000000 ) ) ;
#73 = SECURITY_CLASSIFICATION ( '', '', #44 ) ;
#74 = CARTESIAN_POINT ( 'NONE',  ( -0.2500000000000000000, 0.000000000000000000, 0.09842519685039370636 ) ) ;
#75 = VERTEX_POINT ( 'NONE', #11 ) ;
#76 = CIRCLE ( 'NONE', #227, 0.1875000000000000278 ) ;
#77 = ORIENTED_EDGE ( 'NONE', *, *, #52, .T. ) ;
#78 = DIRECTION ( 'NONE',  ( -1.000000000000000000, -0.000000000000000000, -0.000000000000000000 ) ) ;
#79 = COORDINATED_UNIVERSAL_TIME_OFFSET ( 6, 0, .BEHIND. ) ;
#80 = LOCAL_TIME ( 14, 42, 6.000000000000000000, #2 ) ;
#81 = CALENDAR_DATE ( 2022, 27, 4 ) ;
#82 = PERSON_AND_ORGANIZATION ( #56, #151 ) ;
#83 = EDGE_CURVE ( 'NONE', #75, #46, #58, .T. ) ;
#84 = AXIS2_PLACEMENT_3D ( 'NONE', #249, #72, #48 ) ;
#85 = APPROVAL ( #212, 'UNSPECIFIED' ) ;
#86 = CARTESIAN_POINT ( 'NONE',  ( -0.2500000000000000000, 2.296212748401287726E-17, -0.1875000000000000278 ) ) ;
#87 = CYLINDRICAL_SURFACE ( 'NONE', #154, 0.09842519685039370636 ) ;
#88 = PLANE ( 'NONE',  #129 ) ;
#89 = DIRECTION ( 'NONE',  ( 0.000000000000000000, 0.000000000000000000, 1.000000000000000000 ) ) ;
#90 = CC_DESIGN_SECURITY_CLASSIFICATION ( #73, ( #14 ) ) ;
#91 = VERTEX_POINT ( 'NONE', #242 ) ;
#92 = FACE_OUTER_BOUND ( 'NONE', #25, .T. ) ;
#93 = VERTEX_POINT ( 'NONE', #241 ) ;
#94 = DIRECTION ( 'NONE',  ( 0.000000000000000000, 0.000000000000000000, 1.000000000000000000 ) ) ;
#95 = VECTOR ( 'NONE', #229, 39.37007874015748143 ) ;
#96 = DIRECTION ( 'NONE',  ( -1.000000000000000000, 0.000000000000000000, -0.000000000000000000 ) ) ;
#97 = DIRECTION ( 'NONE',  ( 1.000000000000000000, 0.000000000000000000, 0.000000000000000000 ) ) ;
#98 = CARTESIAN_POINT ( 'NONE',  ( -0.2500000000000000000, 0.000000000000000000, 0.000000000000000000 ) ) ;
#99 = VECTOR ( 'NONE', #78, 39.37007874015748143 ) ;
#100 = EDGE_CURVE ( 'NONE', #91, #224, #31, .T. ) ;
#101 = CARTESIAN_POINT ( 'NONE',  ( -0.2500000000000000000, 0.000000000000000000, 0.000000000000000000 ) ) ;
#102 = CLOSED_SHELL ( 'NONE', ( #140, #68, #194, #173, #1, #200 ) ) ;
#103 = ORIENTED_EDGE ( 'NONE', *, *, #216, .F. ) ;
#104 = DIRECTION ( 'NONE',  ( -1.000000000000000000, -0.000000000000000000, -0.000000000000000000 ) ) ;
#105 = DATE_AND_TIME ( #180, #15 ) ;
#106 = ORIENTED_EDGE ( 'NONE', *, *, #110, .T. ) ;
#107 = AXIS2_PLACEMENT_3D ( 'NONE', #192, #183, #89 ) ;
#108 = DIRECTION ( 'NONE',  ( -1.000000000000000000, -0.000000000000000000, -0.000000000000000000 ) ) ;
#109 = ORIENTED_EDGE ( 'NONE', *, *, #83, .T. ) ;
#110 = EDGE_CURVE ( 'NONE', #224, #91, #76, .T. ) ;
#111 = VERTEX_POINT ( 'NONE', #74 ) ;
#112 = AXIS2_PLACEMENT_3D ( 'NONE', #131, #96, #16 ) ;
#113 = DESIGN_CONTEXT ( 'detailed design', #20, 'design' ) ;
#114 = DIRECTION ( 'NONE',  ( -1.000000000000000000, -0.000000000000000000, -0.000000000000000000 ) ) ;
#115 = CARTESIAN_POINT ( 'NONE',  ( -0.2500000000000000000, 1.205361022782828035E-17, -0.09842519685039370636 ) ) ;
#116 = CALENDAR_DATE ( 2022, 27, 4 ) ;
#117 = CALENDAR_DATE ( 2022, 27, 4 ) ;
#118 = CC_DESIGN_PERSON_AND_ORGANIZATION_ASSIGNMENT ( #174, #119, ( #73 ) ) ;
#119 = PERSON_AND_ORGANIZATION_ROLE ( 'classification_officer' ) ;
#120 = CC_DESIGN_PERSON_AND_ORGANIZATION_ASSIGNMENT ( #66, #138, ( #14 ) ) ;
#121 = CC_DESIGN_APPROVAL ( #85, ( #234 ) ) ;
#122 = CARTESIAN_POINT ( 'NONE',  ( 0.2500000000000000000, 0.000000000000000000, 0.000000000000000000 ) ) ;
#123 = SHAPE_DEFINITION_REPRESENTATION ( #238, #69 ) ;
#124 = ORIENTED_EDGE ( 'NONE', *, *, #28, .F. ) ;
#125 =( GEOMETRIC_REPRESENTATION_CONTEXT ( 3 ) GLOBAL_UNCERTAINTY_ASSIGNED_CONTEXT ( ( #64 ) ) GLOBAL_UNIT_ASSIGNED_CONTEXT ( ( #34, #246, #225 ) ) REPRESENTATION_CONTEXT ( 'NONE', 'WORKASPACE' ) );
#126 = LINE ( 'NONE', #115, #163 ) ;
#127 = CARTESIAN_POINT ( 'NONE',  ( -0.2500000000000000000, 0.000000000000000000, 0.000000000000000000 ) ) ;
#128 = ORIENTED_EDGE ( 'NONE', *, *, #191, .F. ) ;
#129 = AXIS2_PLACEMENT_3D ( 'NONE', #166, #97, #10 ) ;
#130 = LINE ( 'NONE', #247, #251 ) ;
#131 = CARTESIAN_POINT ( 'NONE',  ( 0.2500000000000000000, 0.1875000000000000278, 0.000000000000000000 ) ) ;
#132 = EDGE_LOOP ( 'NONE', ( #103, #188, #207, #152 ) ) ;
#133 = APPLICATION_PROTOCOL_DEFINITION ( 'international standard', 'config_control_design', 1994, #210 ) ;
#134 = DATE_AND_TIME ( #155, #41 ) ;
#135 = APPROVAL_ROLE ( '' ) ;
#136 = CIRCLE ( 'NONE', #26, 0.09842519685039370636 ) ;
#137 = PERSON_AND_ORGANIZATION ( #56, #151 ) ;
#138 = PERSON_AND_ORGANIZATION_ROLE ( 'creator' ) ;
#139 = ORIENTED_EDGE ( 'NONE', *, *, #43, .T. ) ;
#140 = ADVANCED_FACE ( 'NONE', ( #92 ), #168, .T. ) ;
#141 = EDGE_LOOP ( 'NONE', ( #128, #27, #139, #223 ) ) ;
#142 = AXIS2_PLACEMENT_3D ( 'NONE', #32, #114, #164 ) ;
#143 = CC_DESIGN_DATE_AND_TIME_ASSIGNMENT ( #197, #22, ( #73 ) ) ;
#144 = APPROVAL_DATE_TIME ( #105, #19 ) ;
#145 = CARTESIAN_POINT ( 'NONE',  ( 0.2500000000000000000, 1.205361022782828035E-17, -0.09842519685039370636 ) ) ;
#146 = DIRECTION ( 'NONE',  ( 0.000000000000000000, 0.000000000000000000, 1.000000000000000000 ) ) ;
#147 = EDGE_LOOP ( 'NONE', ( #109, #35 ) ) ;
#148 = CARTESIAN_POINT ( 'NONE',  ( -0.2500000000000000000, 0.000000000000000000, 0.000000000000000000 ) ) ;
#149 = EDGE_CURVE ( 'NONE', #111, #93, #170, .T. ) ;
#150 = EDGE_LOOP ( 'NONE', ( #106, #13 ) ) ;
#151 = ORGANIZATION ( 'UNSPECIFIED', 'UNSPECIFIED', '' ) ;
#152 = ORIENTED_EDGE ( 'NONE', *, *, #43, .F. ) ;
#153 = FACE_OUTER_BOUND ( 'NONE', #132, .T. ) ;
#154 = AXIS2_PLACEMENT_3D ( 'NONE', #217, #45, #23 ) ;
#155 = CALENDAR_DATE ( 2022, 27, 4 ) ;
#156 = APPROVAL_PERSON_ORGANIZATION ( #228, #7, #135 ) ;
#157 = APPROVAL_ROLE ( '' ) ;
#158 = APPROVAL_ROLE ( '' ) ;
#159 = FACE_OUTER_BOUND ( 'NONE', #141, .T. ) ;
#160 = CC_DESIGN_PERSON_AND_ORGANIZATION_ASSIGNMENT ( #233, #230, ( #199 ) ) ;
#161 = ORIENTED_EDGE ( 'NONE', *, *, #185, .F. ) ;
#162 = CYLINDRICAL_SURFACE ( 'NONE', #198, 0.1875000000000000278 ) ;
#163 = VECTOR ( 'NONE', #60, 39.37007874015748143 ) ;
#164 = DIRECTION ( 'NONE',  ( 0.000000000000000000, 0.000000000000000000, 1.000000000000000000 ) ) ;
#165 = CC_DESIGN_APPROVAL ( #19, ( #73 ) ) ;
#166 = CARTESIAN_POINT ( 'NONE',  ( -0.2500000000000000000, 0.1875000000000000278, 0.000000000000000000 ) ) ;
#167 = DIRECTION ( 'NONE',  ( 0.000000000000000000, 0.000000000000000000, 1.000000000000000000 ) ) ;
#168 = CYLINDRICAL_SURFACE ( 'NONE', #244, 0.1875000000000000278 ) ;
#169 = FACE_OUTER_BOUND ( 'NONE', #218, .T. ) ;
#170 = CIRCLE ( 'NONE', #6, 0.09842519685039370636 ) ;
#171 = LINE ( 'NONE', #205, #99 ) ;
#172 = CC_DESIGN_PERSON_AND_ORGANIZATION_ASSIGNMENT ( #137, #214, ( #14 ) ) ;
#173 = ADVANCED_FACE ( 'NONE', ( #159 ), #87, .F. ) ;
#174 = PERSON_AND_ORGANIZATION ( #56, #151 ) ;
#175 = APPROVAL_PERSON_ORGANIZATION ( #176, #19, #158 ) ;
#176 = PERSON_AND_ORGANIZATION ( #56, #151 ) ;
#177 = PRODUCT_RELATED_PRODUCT_CATEGORY ( 'detail', '', ( #199 ) ) ;
#178 = AXIS2_PLACEMENT_3D ( 'NONE', #122, #240, #222 ) ;
#179 = DIRECTION ( 'NONE',  ( 0.000000000000000000, 0.000000000000000000, 1.000000000000000000 ) ) ;
#180 = CALENDAR_DATE ( 2022, 27, 4 ) ;
#181 = ORIENTED_EDGE ( 'NONE', *, *, #185, .T. ) ;
#182 = FACE_BOUND ( 'NONE', #147, .T. ) ;
#183 = DIRECTION ( 'NONE',  ( -1.000000000000000000, -0.000000000000000000, -0.000000000000000000 ) ) ;
#184 = CARTESIAN_POINT ( 'NONE',  ( 0.2500000000000000000, 2.296212748401287726E-17, -0.1875000000000000278 ) ) ;
#185 = EDGE_CURVE ( 'NONE', #239, #91, #8, .T. ) ;
#186 = EDGE_LOOP ( 'NONE', ( #161, #77, #12, #57 ) ) ;
#187 =( LENGTH_UNIT ( ) NAMED_UNIT ( * ) SI_UNIT ( $, .METRE. ) );
#188 = ORIENTED_EDGE ( 'NONE', *, *, #191, .T. ) ;
#189 = CC_DESIGN_APPROVAL ( #7, ( #14 ) ) ;
#190 = FACE_OUTER_BOUND ( 'NONE', #150, .T. ) ;
#191 = EDGE_CURVE ( 'NONE', #46, #93, #126, .T. ) ;
#192 = CARTESIAN_POINT ( 'NONE',  ( 0.2500000000000000000, 0.000000000000000000, 0.000000000000000000 ) ) ;
#193 = DATE_AND_TIME ( #116, #201 ) ;
#194 = ADVANCED_FACE ( 'NONE', ( #38, #190 ), #88, .F. ) ;
#195 = CIRCLE ( 'NONE', #84, 0.1875000000000000278 ) ;
#196 = DIRECTION ( 'NONE',  ( 0.000000000000000000, 0.000000000000000000, 1.000000000000000000 ) ) ;
#197 = DATE_AND_TIME ( #81, #80 ) ;
#198 = AXIS2_PLACEMENT_3D ( 'NONE', #98, #17, #146 ) ;
#199 = PRODUCT ( 'REV-21-2088', 'REV-21-2088', '', ( #252 ) ) ;
#200 = ADVANCED_FACE ( 'NONE', ( #29 ), #162, .T. ) ;
#201 = LOCAL_TIME ( 14, 42, 6.000000000000000000, #79 ) ;
#202 = DIRECTION ( 'NONE',  ( -1.000000000000000000, -0.000000000000000000, -0.000000000000000000 ) ) ;
#203 = EDGE_CURVE ( 'NONE', #49, #239, #195, .T. ) ;
#204 = ORIENTED_EDGE ( 'NONE', *, *, #52, .F. ) ;
#205 = CARTESIAN_POINT ( 'NONE',  ( -0.2500000000000000000, 0.000000000000000000, 0.09842519685039370636 ) ) ;
#206 = DIRECTION ( 'NONE',  ( -1.000000000000000000, -0.000000000000000000, -0.000000000000000000 ) ) ;
#207 = ORIENTED_EDGE ( 'NONE', *, *, #220, .T. ) ;
#208 = CIRCLE ( 'NONE', #36, 0.1875000000000000278 ) ;
#209 = APPROVAL_DATE_TIME ( #134, #85 ) ;
#210 = APPLICATION_CONTEXT ( 'configuration controlled 3d designs of mechanical parts and assemblies' ) ;
#211 = COORDINATED_UNIVERSAL_TIME_OFFSET ( 6, 0, .BEHIND. ) ;
#212 = APPROVAL_STATUS ( 'not_yet_approved' ) ;
#213 = AXIS2_PLACEMENT_3D ( 'NONE', #219, #108, #243 ) ;
#214 = PERSON_AND_ORGANIZATION_ROLE ( 'design_supplier' ) ;
#215 = CARTESIAN_POINT ( 'NONE',  ( -0.2500000000000000000, 0.000000000000000000, 0.000000000000000000 ) ) ;
#216 = EDGE_CURVE ( 'NONE', #46, #75, #3, .T. ) ;
#217 = CARTESIAN_POINT ( 'NONE',  ( -0.2500000000000000000, 0.000000000000000000, 0.000000000000000000 ) ) ;
#218 = EDGE_LOOP ( 'NONE', ( #53, #204 ) ) ;
#219 = CARTESIAN_POINT ( 'NONE',  ( -0.2500000000000000000, 0.000000000000000000, 0.000000000000000000 ) ) ;
#220 = EDGE_CURVE ( 'NONE', #93, #111, #136, .T. ) ;
#221 = CARTESIAN_POINT ( 'NONE',  ( 0.2500000000000000000, 0.000000000000000000, 0.1875000000000000278 ) ) ;
#222 = DIRECTION ( 'NONE',  ( 0.000000000000000000, 0.000000000000000000, 1.000000000000000000 ) ) ;
#223 = ORIENTED_EDGE ( 'NONE', *, *, #149, .T. ) ;
#224 = VERTEX_POINT ( 'NONE', #51 ) ;
#225 =( NAMED_UNIT ( * ) SI_UNIT ( $, .STERADIAN. ) SOLID_ANGLE_UNIT ( ) );
#226 = CYLINDRICAL_SURFACE ( 'NONE', #142, 0.09842519685039370636 ) ;
#227 = AXIS2_PLACEMENT_3D ( 'NONE', #127, #202, #30 ) ;
#228 = PERSON_AND_ORGANIZATION ( #56, #151 ) ;
#229 = DIRECTION ( 'NONE',  ( -1.000000000000000000, -0.000000000000000000, -0.000000000000000000 ) ) ;
#230 = PERSON_AND_ORGANIZATION_ROLE ( 'design_owner' ) ;
#231 = APPROVAL_DATE_TIME ( #21, #7 ) ;
#232 = APPROVAL_PERSON_ORGANIZATION ( #82, #85, #157 ) ;
#233 = PERSON_AND_ORGANIZATION ( #56, #151 ) ;
#234 = PRODUCT_DEFINITION ( 'UNKNOWN', '', #14, #113 ) ;
#235 = DIRECTION ( 'NONE',  ( 0.000000000000000000, 0.000000000000000000, 1.000000000000000000 ) ) ;
#236 = COORDINATED_UNIVERSAL_TIME_OFFSET ( 6, 0, .BEHIND. ) ;
#237 = COORDINATED_UNIVERSAL_TIME_OFFSET ( 6, 0, .BEHIND. ) ;
#238 = PRODUCT_DEFINITION_SHAPE ( 'NONE', 'NONE',  #234 ) ;
#239 = VERTEX_POINT ( 'NONE', #184 ) ;
#240 = DIRECTION ( 'NONE',  ( -1.000000000000000000, -0.000000000000000000, -0.000000000000000000 ) ) ;
#241 = CARTESIAN_POINT ( 'NONE',  ( -0.2500000000000000000, 1.205361022782828035E-17, -0.09842519685039370636 ) ) ;
#242 = CARTESIAN_POINT ( 'NONE',  ( -0.2500000000000000000, 2.296212748401287726E-17, -0.1875000000000000278 ) ) ;
#243 = DIRECTION ( 'NONE',  ( 0.000000000000000000, 0.000000000000000000, 1.000000000000000000 ) ) ;
#244 = AXIS2_PLACEMENT_3D ( 'NONE', #215, #61, #235 ) ;
#245 = PLANE ( 'NONE',  #112 ) ;
#246 =( NAMED_UNIT ( * ) PLANE_ANGLE_UNIT ( ) SI_UNIT ( $, .RADIAN. ) );
#247 = CARTESIAN_POINT ( 'NONE',  ( -0.2500000000000000000, 0.000000000000000000, 0.1875000000000000278 ) ) ;
#248 = DIRECTION ( 'NONE',  ( -1.000000000000000000, -0.000000000000000000, -0.000000000000000000 ) ) ;
#249 = CARTESIAN_POINT ( 'NONE',  ( 0.2500000000000000000, 0.000000000000000000, 0.000000000000000000 ) ) ;
#250 = PERSON_AND_ORGANIZATION_ROLE ( 'creator' ) ;
#251 = VECTOR ( 'NONE', #206, 39.37007874015748143 ) ;
#252 = MECHANICAL_CONTEXT ( 'NONE', #210, 'mechanical' ) ;
ENDSEC;
END-ISO-10303-21;
