ISO-10303-21;
HEADER;
/* Generated by software containing ST-Developer
 * from STEP Tools, Inc. (www.steptools.com) 
 */

FILE_DESCRIPTION(
/* description */ (''),
/* implementation_level */ '2;1');

FILE_NAME(
/* name */ 'E:/Dropbox/REV Robotics/STEP Files/REV-41-1368 v0.step',
/* time_stamp */ '2017-04-10T11:53:20-05:00',
/* author */ (''),
/* organization */ (''),
/* preprocessor_version */ 'ST-DEVELOPER v16.5',
/* originating_system */ 'Autodesk Translation Framework v5.2.0.2920',
/* authorisation */ '');

FILE_SCHEMA (('AUTOMOTIVE_DESIGN { 1 0 10303 214 3 1 1 }'));
ENDSEC;

DATA;
#10=MECHANICAL_DESIGN_GEOMETRIC_PRESENTATION_REPRESENTATION('',(#13),#323);
#11=SHAPE_REPRESENTATION_RELATIONSHIP('SRR','None',#329,#12);
#12=ADVANCED_BREP_SHAPE_REPRESENTATION('',(#14),#322);
#13=STYLED_ITEM('',(#338),#14);
#14=MANIFOLD_SOLID_BREP('Body1',#180);
#15=CONICAL_SURFACE('',#201,5.375,0.785398163397456);
#16=CONICAL_SURFACE('',#203,5.37499999999999,0.785398163397442);
#17=PLANE('',#185);
#18=PLANE('',#189);
#19=PLANE('',#193);
#20=PLANE('',#197);
#21=PLANE('',#207);
#22=PLANE('',#211);
#23=FACE_BOUND('',#54,.T.);
#24=FACE_BOUND('',#56,.T.);
#25=FACE_BOUND('',#58,.T.);
#26=FACE_BOUND('',#60,.T.);
#27=FACE_BOUND('',#62,.T.);
#28=FACE_BOUND('',#64,.T.);
#29=FACE_BOUND('',#66,.T.);
#30=FACE_BOUND('',#68,.T.);
#31=FACE_BOUND('',#70,.T.);
#32=FACE_BOUND('',#72,.T.);
#33=FACE_BOUND('',#74,.T.);
#34=FACE_BOUND('',#76,.T.);
#35=FACE_BOUND('',#78,.T.);
#36=FACE_BOUND('',#80,.T.);
#37=FACE_BOUND('',#82,.T.);
#38=FACE_OUTER_BOUND('',#53,.T.);
#39=FACE_OUTER_BOUND('',#55,.T.);
#40=FACE_OUTER_BOUND('',#57,.T.);
#41=FACE_OUTER_BOUND('',#59,.T.);
#42=FACE_OUTER_BOUND('',#61,.T.);
#43=FACE_OUTER_BOUND('',#63,.T.);
#44=FACE_OUTER_BOUND('',#65,.T.);
#45=FACE_OUTER_BOUND('',#67,.T.);
#46=FACE_OUTER_BOUND('',#69,.T.);
#47=FACE_OUTER_BOUND('',#71,.T.);
#48=FACE_OUTER_BOUND('',#73,.T.);
#49=FACE_OUTER_BOUND('',#75,.T.);
#50=FACE_OUTER_BOUND('',#77,.T.);
#51=FACE_OUTER_BOUND('',#79,.T.);
#52=FACE_OUTER_BOUND('',#81,.T.);
#53=EDGE_LOOP('',(#128));
#54=EDGE_LOOP('',(#129));
#55=EDGE_LOOP('',(#130));
#56=EDGE_LOOP('',(#131));
#57=EDGE_LOOP('',(#132));
#58=EDGE_LOOP('',(#133));
#59=EDGE_LOOP('',(#134));
#60=EDGE_LOOP('',(#135));
#61=EDGE_LOOP('',(#136));
#62=EDGE_LOOP('',(#137));
#63=EDGE_LOOP('',(#138));
#64=EDGE_LOOP('',(#139));
#65=EDGE_LOOP('',(#140));
#66=EDGE_LOOP('',(#141));
#67=EDGE_LOOP('',(#142));
#68=EDGE_LOOP('',(#143));
#69=EDGE_LOOP('',(#144));
#70=EDGE_LOOP('',(#145));
#71=EDGE_LOOP('',(#146));
#72=EDGE_LOOP('',(#147));
#73=EDGE_LOOP('',(#148));
#74=EDGE_LOOP('',(#149));
#75=EDGE_LOOP('',(#150));
#76=EDGE_LOOP('',(#151));
#77=EDGE_LOOP('',(#152));
#78=EDGE_LOOP('',(#153));
#79=EDGE_LOOP('',(#154));
#80=EDGE_LOOP('',(#155));
#81=EDGE_LOOP('',(#156));
#82=EDGE_LOOP('',(#157));
#83=CIRCLE('',#183,2.05000000000001);
#84=CIRCLE('',#184,2.05000000000001);
#85=CIRCLE('',#186,1.55);
#86=CIRCLE('',#188,1.55);
#87=CIRCLE('',#190,2.05);
#88=CIRCLE('',#192,2.05);
#89=CIRCLE('',#194,3.55);
#90=CIRCLE('',#196,3.55);
#91=CIRCLE('',#198,6.);
#92=CIRCLE('',#200,6.);
#93=CIRCLE('',#202,4.75);
#94=CIRCLE('',#204,5.99999999999998);
#95=CIRCLE('',#206,6.00000000000001);
#96=CIRCLE('',#208,3.55000000000001);
#97=CIRCLE('',#210,3.55000000000001);
#98=VERTEX_POINT('',#276);
#99=VERTEX_POINT('',#278);
#100=VERTEX_POINT('',#281);
#101=VERTEX_POINT('',#284);
#102=VERTEX_POINT('',#287);
#103=VERTEX_POINT('',#290);
#104=VERTEX_POINT('',#293);
#105=VERTEX_POINT('',#296);
#106=VERTEX_POINT('',#299);
#107=VERTEX_POINT('',#302);
#108=VERTEX_POINT('',#305);
#109=VERTEX_POINT('',#308);
#110=VERTEX_POINT('',#311);
#111=VERTEX_POINT('',#314);
#112=VERTEX_POINT('',#317);
#113=EDGE_CURVE('',#98,#98,#83,.T.);
#114=EDGE_CURVE('',#99,#99,#84,.T.);
#115=EDGE_CURVE('',#100,#100,#85,.T.);
#116=EDGE_CURVE('',#101,#101,#86,.T.);
#117=EDGE_CURVE('',#102,#102,#87,.T.);
#118=EDGE_CURVE('',#103,#103,#88,.T.);
#119=EDGE_CURVE('',#104,#104,#89,.T.);
#120=EDGE_CURVE('',#105,#105,#90,.T.);
#121=EDGE_CURVE('',#106,#106,#91,.T.);
#122=EDGE_CURVE('',#107,#107,#92,.T.);
#123=EDGE_CURVE('',#108,#108,#93,.T.);
#124=EDGE_CURVE('',#109,#109,#94,.T.);
#125=EDGE_CURVE('',#110,#110,#95,.T.);
#126=EDGE_CURVE('',#111,#111,#96,.T.);
#127=EDGE_CURVE('',#112,#112,#97,.T.);
#128=ORIENTED_EDGE('',*,*,#113,.T.);
#129=ORIENTED_EDGE('',*,*,#114,.F.);
#130=ORIENTED_EDGE('',*,*,#114,.T.);
#131=ORIENTED_EDGE('',*,*,#115,.F.);
#132=ORIENTED_EDGE('',*,*,#115,.T.);
#133=ORIENTED_EDGE('',*,*,#116,.F.);
#134=ORIENTED_EDGE('',*,*,#117,.F.);
#135=ORIENTED_EDGE('',*,*,#116,.T.);
#136=ORIENTED_EDGE('',*,*,#117,.T.);
#137=ORIENTED_EDGE('',*,*,#118,.F.);
#138=ORIENTED_EDGE('',*,*,#119,.F.);
#139=ORIENTED_EDGE('',*,*,#118,.T.);
#140=ORIENTED_EDGE('',*,*,#119,.T.);
#141=ORIENTED_EDGE('',*,*,#120,.F.);
#142=ORIENTED_EDGE('',*,*,#121,.F.);
#143=ORIENTED_EDGE('',*,*,#120,.T.);
#144=ORIENTED_EDGE('',*,*,#121,.T.);
#145=ORIENTED_EDGE('',*,*,#122,.F.);
#146=ORIENTED_EDGE('',*,*,#122,.T.);
#147=ORIENTED_EDGE('',*,*,#123,.F.);
#148=ORIENTED_EDGE('',*,*,#123,.T.);
#149=ORIENTED_EDGE('',*,*,#124,.F.);
#150=ORIENTED_EDGE('',*,*,#124,.T.);
#151=ORIENTED_EDGE('',*,*,#125,.F.);
#152=ORIENTED_EDGE('',*,*,#125,.T.);
#153=ORIENTED_EDGE('',*,*,#126,.F.);
#154=ORIENTED_EDGE('',*,*,#126,.T.);
#155=ORIENTED_EDGE('',*,*,#127,.F.);
#156=ORIENTED_EDGE('',*,*,#127,.T.);
#157=ORIENTED_EDGE('',*,*,#113,.F.);
#158=CYLINDRICAL_SURFACE('',#182,2.05000000000001);
#159=CYLINDRICAL_SURFACE('',#187,1.55);
#160=CYLINDRICAL_SURFACE('',#191,2.05);
#161=CYLINDRICAL_SURFACE('',#195,3.55);
#162=CYLINDRICAL_SURFACE('',#199,6.);
#163=CYLINDRICAL_SURFACE('',#205,5.99999999999999);
#164=CYLINDRICAL_SURFACE('',#209,3.55000000000001);
#165=ADVANCED_FACE('',(#38,#23),#158,.T.);
#166=ADVANCED_FACE('',(#39,#24),#17,.T.);
#167=ADVANCED_FACE('',(#40,#25),#159,.F.);
#168=ADVANCED_FACE('',(#41,#26),#18,.T.);
#169=ADVANCED_FACE('',(#42,#27),#160,.T.);
#170=ADVANCED_FACE('',(#43,#28),#19,.T.);
#171=ADVANCED_FACE('',(#44,#29),#161,.F.);
#172=ADVANCED_FACE('',(#45,#30),#20,.T.);
#173=ADVANCED_FACE('',(#46,#31),#162,.T.);
#174=ADVANCED_FACE('',(#47,#32),#15,.T.);
#175=ADVANCED_FACE('',(#48,#33),#16,.T.);
#176=ADVANCED_FACE('',(#49,#34),#163,.T.);
#177=ADVANCED_FACE('',(#50,#35),#21,.T.);
#178=ADVANCED_FACE('',(#51,#36),#164,.F.);
#179=ADVANCED_FACE('',(#52,#37),#22,.T.);
#180=CLOSED_SHELL('',(#165,#166,#167,#168,#169,#170,#171,#172,#173,#174,
#175,#176,#177,#178,#179));
#181=AXIS2_PLACEMENT_3D('placement',#274,#212,#213);
#182=AXIS2_PLACEMENT_3D('',#275,#214,#215);
#183=AXIS2_PLACEMENT_3D('',#277,#216,#217);
#184=AXIS2_PLACEMENT_3D('',#279,#218,#219);
#185=AXIS2_PLACEMENT_3D('',#280,#220,#221);
#186=AXIS2_PLACEMENT_3D('',#282,#222,#223);
#187=AXIS2_PLACEMENT_3D('',#283,#224,#225);
#188=AXIS2_PLACEMENT_3D('',#285,#226,#227);
#189=AXIS2_PLACEMENT_3D('',#286,#228,#229);
#190=AXIS2_PLACEMENT_3D('',#288,#230,#231);
#191=AXIS2_PLACEMENT_3D('',#289,#232,#233);
#192=AXIS2_PLACEMENT_3D('',#291,#234,#235);
#193=AXIS2_PLACEMENT_3D('',#292,#236,#237);
#194=AXIS2_PLACEMENT_3D('',#294,#238,#239);
#195=AXIS2_PLACEMENT_3D('',#295,#240,#241);
#196=AXIS2_PLACEMENT_3D('',#297,#242,#243);
#197=AXIS2_PLACEMENT_3D('',#298,#244,#245);
#198=AXIS2_PLACEMENT_3D('',#300,#246,#247);
#199=AXIS2_PLACEMENT_3D('',#301,#248,#249);
#200=AXIS2_PLACEMENT_3D('',#303,#250,#251);
#201=AXIS2_PLACEMENT_3D('',#304,#252,#253);
#202=AXIS2_PLACEMENT_3D('',#306,#254,#255);
#203=AXIS2_PLACEMENT_3D('',#307,#256,#257);
#204=AXIS2_PLACEMENT_3D('',#309,#258,#259);
#205=AXIS2_PLACEMENT_3D('',#310,#260,#261);
#206=AXIS2_PLACEMENT_3D('',#312,#262,#263);
#207=AXIS2_PLACEMENT_3D('',#313,#264,#265);
#208=AXIS2_PLACEMENT_3D('',#315,#266,#267);
#209=AXIS2_PLACEMENT_3D('',#316,#268,#269);
#210=AXIS2_PLACEMENT_3D('',#318,#270,#271);
#211=AXIS2_PLACEMENT_3D('',#319,#272,#273);
#212=DIRECTION('axis',(0.,0.,1.));
#213=DIRECTION('refdir',(1.,0.,0.));
#214=DIRECTION('center_axis',(0.,-2.12919804704209E-15,-1.));
#215=DIRECTION('ref_axis',(0.,1.,-2.13187156324461E-15));
#216=DIRECTION('center_axis',(0.,-2.12919804704209E-15,-1.));
#217=DIRECTION('ref_axis',(1.,0.,0.));
#218=DIRECTION('center_axis',(0.,-2.12919804704209E-15,-1.));
#219=DIRECTION('ref_axis',(1.,0.,0.));
#220=DIRECTION('center_axis',(0.,-2.12919804704209E-15,-1.));
#221=DIRECTION('ref_axis',(-1.,0.,0.));
#222=DIRECTION('center_axis',(0.,-2.12919804704209E-15,-1.));
#223=DIRECTION('ref_axis',(1.,0.,0.));
#224=DIRECTION('center_axis',(0.,-2.12919804704209E-15,-1.));
#225=DIRECTION('ref_axis',(0.,1.,-2.13187156324461E-15));
#226=DIRECTION('center_axis',(0.,-2.12919804704209E-15,-1.));
#227=DIRECTION('ref_axis',(1.,0.,0.));
#228=DIRECTION('center_axis',(0.,2.12919804704209E-15,1.));
#229=DIRECTION('ref_axis',(1.,0.,0.));
#230=DIRECTION('center_axis',(0.,-2.12919804704209E-15,-1.));
#231=DIRECTION('ref_axis',(1.,0.,0.));
#232=DIRECTION('center_axis',(0.,-2.12919804704209E-15,-1.));
#233=DIRECTION('ref_axis',(0.,1.,-2.13187156324461E-15));
#234=DIRECTION('center_axis',(0.,-2.12919804704209E-15,-1.));
#235=DIRECTION('ref_axis',(1.,0.,0.));
#236=DIRECTION('center_axis',(0.,2.12919804704209E-15,1.));
#237=DIRECTION('ref_axis',(1.,0.,0.));
#238=DIRECTION('center_axis',(0.,-2.12919804704209E-15,-1.));
#239=DIRECTION('ref_axis',(1.,0.,0.));
#240=DIRECTION('center_axis',(0.,-2.12919804704209E-15,-1.));
#241=DIRECTION('ref_axis',(0.,1.,-2.13187156324461E-15));
#242=DIRECTION('center_axis',(0.,-2.12919804704209E-15,-1.));
#243=DIRECTION('ref_axis',(1.,0.,0.));
#244=DIRECTION('center_axis',(0.,2.12919804704209E-15,1.));
#245=DIRECTION('ref_axis',(1.,0.,0.));
#246=DIRECTION('center_axis',(0.,-2.12919804704209E-15,-1.));
#247=DIRECTION('ref_axis',(1.,0.,0.));
#248=DIRECTION('center_axis',(0.,-2.12919804704209E-15,-1.));
#249=DIRECTION('ref_axis',(0.,1.,-2.13187156324461E-15));
#250=DIRECTION('center_axis',(0.,-2.12919804704209E-15,-1.));
#251=DIRECTION('ref_axis',(1.,0.,0.));
#252=DIRECTION('center_axis',(0.,2.12919804704209E-15,1.));
#253=DIRECTION('ref_axis',(0.,1.,-2.13187156324461E-15));
#254=DIRECTION('center_axis',(0.,-2.12919804704209E-15,-1.));
#255=DIRECTION('ref_axis',(1.,0.,0.));
#256=DIRECTION('center_axis',(0.,-2.12919804704209E-15,-1.));
#257=DIRECTION('ref_axis',(0.,1.,-2.13187156324461E-15));
#258=DIRECTION('center_axis',(0.,-2.12919804704209E-15,-1.));
#259=DIRECTION('ref_axis',(1.,0.,0.));
#260=DIRECTION('center_axis',(0.,-2.12919804704209E-15,-1.));
#261=DIRECTION('ref_axis',(0.,1.,-2.13187156324461E-15));
#262=DIRECTION('center_axis',(0.,-2.12919804704209E-15,-1.));
#263=DIRECTION('ref_axis',(1.,0.,0.));
#264=DIRECTION('center_axis',(0.,-2.12919804704209E-15,-1.));
#265=DIRECTION('ref_axis',(-1.,0.,0.));
#266=DIRECTION('center_axis',(0.,-2.12919804704209E-15,-1.));
#267=DIRECTION('ref_axis',(1.,0.,0.));
#268=DIRECTION('center_axis',(0.,-2.12919804704209E-15,-1.));
#269=DIRECTION('ref_axis',(0.,1.,-2.13187156324461E-15));
#270=DIRECTION('center_axis',(0.,-2.12919804704209E-15,-1.));
#271=DIRECTION('ref_axis',(1.,0.,0.));
#272=DIRECTION('center_axis',(0.,-2.12919804704209E-15,-1.));
#273=DIRECTION('ref_axis',(-1.,0.,0.));
#274=CARTESIAN_POINT('',(0.,0.,0.));
#275=CARTESIAN_POINT('Origin',(0.,-3.77932653349972E-15,-1.775));
#276=CARTESIAN_POINT('',(0.,2.05000000000001,-1.55000000000001));
#277=CARTESIAN_POINT('Origin',(0.,-3.30025697291526E-15,-1.55));
#278=CARTESIAN_POINT('',(0.,2.05000000000001,-2.));
#279=CARTESIAN_POINT('Origin',(0.,-4.25839609408418E-15,-2.));
#280=CARTESIAN_POINT('Origin',(0.,1.55,-2.));
#281=CARTESIAN_POINT('',(0.,1.55,-2.));
#282=CARTESIAN_POINT('Origin',(0.,-4.25839609408419E-15,-2.));
#283=CARTESIAN_POINT('Origin',(0.,-4.93038065763132E-31,0.));
#284=CARTESIAN_POINT('',(0.,1.55,2.));
#285=CARTESIAN_POINT('Origin',(0.,4.25839609408419E-15,2.));
#286=CARTESIAN_POINT('Origin',(0.,2.05000000000001,1.99999999999999));
#287=CARTESIAN_POINT('',(0.,2.05000000000001,1.99999999999999));
#288=CARTESIAN_POINT('Origin',(0.,4.25839609408417E-15,1.99999999999999));
#289=CARTESIAN_POINT('Origin',(0.,3.77932653349971E-15,1.775));
#290=CARTESIAN_POINT('',(0.,2.05000000000001,1.54999999999999));
#291=CARTESIAN_POINT('Origin',(0.,3.30025697291525E-15,1.55));
#292=CARTESIAN_POINT('Origin',(0.,3.55000000000001,1.54999999999999));
#293=CARTESIAN_POINT('',(0.,3.55000000000001,1.54999999999999));
#294=CARTESIAN_POINT('Origin',(0.,3.30025697291524E-15,1.55));
#295=CARTESIAN_POINT('Origin',(0.,3.77932653349971E-15,1.775));
#296=CARTESIAN_POINT('',(0.,3.55000000000001,1.99999999999999));
#297=CARTESIAN_POINT('Origin',(0.,4.25839609408418E-15,2.));
#298=CARTESIAN_POINT('Origin',(0.,6.,1.99999999999998));
#299=CARTESIAN_POINT('',(0.,6.,1.99999999999998));
#300=CARTESIAN_POINT('Origin',(0.,4.25839609408417E-15,1.99999999999999));
#301=CARTESIAN_POINT('Origin',(0.,3.45994682644339E-15,1.62499999999999));
#302=CARTESIAN_POINT('',(0.,6.,1.24999999999998));
#303=CARTESIAN_POINT('Origin',(0.,2.6614975588026E-15,1.24999999999999));
#304=CARTESIAN_POINT('Origin',(0.,1.33074877940131E-15,0.625000000000002));
#305=CARTESIAN_POINT('',(0.,4.75,1.45857124968709E-15));
#306=CARTESIAN_POINT('Origin',(0.,2.36658271566304E-29,1.13797860024079E-14));
#307=CARTESIAN_POINT('Origin',(0.,-1.33074877940128E-15,-0.624999999999988));
#308=CARTESIAN_POINT('',(0.,5.99999999999998,-1.25));
#309=CARTESIAN_POINT('Origin',(0.,-2.66149755880259E-15,-1.24999999999999));
#310=CARTESIAN_POINT('Origin',(0.,-3.45994682644338E-15,-1.62499999999999));
#311=CARTESIAN_POINT('',(0.,6.,-2.));
#312=CARTESIAN_POINT('Origin',(0.,-4.25839609408416E-15,-1.99999999999999));
#313=CARTESIAN_POINT('Origin',(0.,3.55000000000001,-1.99999999999999));
#314=CARTESIAN_POINT('',(0.,3.55000000000001,-1.99999999999999));
#315=CARTESIAN_POINT('Origin',(0.,-4.25839609408416E-15,-1.99999999999998));
#316=CARTESIAN_POINT('Origin',(0.,-3.7793265334997E-15,-1.77499999999999));
#317=CARTESIAN_POINT('',(0.,3.55000000000001,-1.55000000000001));
#318=CARTESIAN_POINT('Origin',(0.,-3.30025697291525E-15,-1.55));
#319=CARTESIAN_POINT('Origin',(0.,2.05000000000001,-1.55000000000001));
#320=UNCERTAINTY_MEASURE_WITH_UNIT(LENGTH_MEASURE(0.01),#324,
'DISTANCE_ACCURACY_VALUE',
'Maximum model space distance between geometric entities at asserted c
onnectivities');
#321=UNCERTAINTY_MEASURE_WITH_UNIT(LENGTH_MEASURE(0.01),#324,
'DISTANCE_ACCURACY_VALUE',
'Maximum model space distance between geometric entities at asserted c
onnectivities');
#322=(
GEOMETRIC_REPRESENTATION_CONTEXT(3)
GLOBAL_UNCERTAINTY_ASSIGNED_CONTEXT((#320))
GLOBAL_UNIT_ASSIGNED_CONTEXT((#324,#326,#325))
REPRESENTATION_CONTEXT('','3D')
);
#323=(
GEOMETRIC_REPRESENTATION_CONTEXT(3)
GLOBAL_UNCERTAINTY_ASSIGNED_CONTEXT((#321))
GLOBAL_UNIT_ASSIGNED_CONTEXT((#324,#326,#325))
REPRESENTATION_CONTEXT('','3D')
);
#324=(
LENGTH_UNIT()
NAMED_UNIT(*)
SI_UNIT(.MILLI.,.METRE.)
);
#325=(
NAMED_UNIT(*)
SI_UNIT($,.STERADIAN.)
SOLID_ANGLE_UNIT()
);
#326=(
NAMED_UNIT(*)
PLANE_ANGLE_UNIT()
SI_UNIT($,.RADIAN.)
);
#327=SHAPE_DEFINITION_REPRESENTATION(#328,#329);
#328=PRODUCT_DEFINITION_SHAPE('',$,#331);
#329=SHAPE_REPRESENTATION('',(#181),#322);
#330=PRODUCT_DEFINITION_CONTEXT('part definition',#335,'design');
#331=PRODUCT_DEFINITION('REV-41-1368 v0','REV-41-1368 v0',#332,#330);
#332=PRODUCT_DEFINITION_FORMATION('',$,#337);
#333=PRODUCT_RELATED_PRODUCT_CATEGORY('REV-41-1368 v0','REV-41-1368 v0',
(#337));
#334=APPLICATION_PROTOCOL_DEFINITION('international standard',
'automotive_design',2009,#335);
#335=APPLICATION_CONTEXT(
'Core Data for Automotive Mechanical Design Process');
#336=PRODUCT_CONTEXT('part definition',#335,'mechanical');
#337=PRODUCT('REV-41-1368 v0','REV-41-1368 v0',$,(#336));
#338=PRESENTATION_STYLE_ASSIGNMENT((#339));
#339=SURFACE_STYLE_USAGE(.BOTH.,#340);
#340=SURFACE_SIDE_STYLE('',(#341));
#341=SURFACE_STYLE_FILL_AREA(#342);
#342=FILL_AREA_STYLE('Steel - Satin',(#343));
#343=FILL_AREA_STYLE_COLOUR('Steel - Satin',#344);
#344=COLOUR_RGB('Steel - Satin',0.627450980392157,0.627450980392157,0.627450980392157);
ENDSEC;
END-ISO-10303-21;
